Song name
# A B C D E F G H I J K L M N O P Q R S T U V W X Y Z

Bowling For Soup - Friday tab

Help us improve GuitareTab! Take a short survey!
-----------------------------------------------------------------
Friday - Bowling For Soup
-----------------------------------------------------------------
Tabbed by: Bair
Email: bair_morritt@hotmail.com
Tuning: Standard

Intro:
e|--------------------------------------------|
B|--------------------------------------------|
G|----------------------7-777777-777-7-6-7----|
D|--7-777777--7-777777--7-777777-777-7-6-7-7--|
A|--7-777777--7-777777--5-555555-555-5-4-5-7--|
E|--5-555555--4-444444---------------------5--|
"Tuesday seemed like it was thursday..."

Verse:
e|-------------------------------------------|
B|-------------------------------------------|
G|----------------------7--------------------|
D|--7-777777--7-777777--7-(Let-Ring)---------|
A|--7-777777--7-777777--5------(Pick-Slide)--|
E|--5-555555--4-444444-----------------------|
"Yesterday I came back down."

e|-----------------------------------------------|
B|-----------------------------------------------|
G|----------------------77777777--44444444-------|
D|--77777777--77777777--77777777--44444444-(X2)--|
A|--77777777--77777777--55555555--22222222-------|
E|--55555555--44444444---------------------------|
"Standing there Just like the fool I know I'd become"

Riff1:
e|-----------------------------|
B|-----------------------------|
G|--------2222--44444444-------|
D|--4444--2222--44444444-(X2)--|
A|--4444--0000--22222222-------|
E|--2222-----------------------|

Verse 2:
"Once again I see the sunshine
Yeah, and I wipe the sleep out of my eyes
Well"

e|------------------------------------------|
B|------------------------------------------|
G|------99--77------99--77777777------------|
D|--77--99--77--77--99--77777777------------|
A|--77--77--55--77--77--55555555------------|
E|--55----------55--------------------------|
"I wake up to find the world has not stopped...."

Riff1:
e|-----------------------------|
B|-----------------------------|
G|--------2222--44444444-------|
D|--4444--2222--44444444-(X2)--|
A|--4444--0000--22222222-------|
E|--2222-----------------------|
"And I lost way too much in you"

Chorus (X2):
e|------------------------------------------|
B|------------------------------------------|
G|------------99999999------------77777777--|
D|--77777777--99999999--99999999--77777777--|
A|--77777777--77777777--99999999--55555555--|
E|--55555555------------77777777------------|
I broke down Just like I have so times before"

e|------------------------------------------|
B|------------------------------------------|
G|------------99999999----------------------|
D|--77777777--99999999--9999999999999999----|
A|--77777777--77777777--9999999999999999----|
E|--55555555------------7777777777777777----|
"Now I see that nothing has changed..."

-Then Trupet Interlude
-Then Verse
-Then Chorus
-Then Riff1
-Then Chorus

Riff2:                                   End
e|--------------------------------------|----|
B|-10-10--------------------------------|----|
G|-------6-7-9-9-9-7-6-4-6-7-7-6-4------|-2--|
D|---------------------------------(X4)-|----|
A|--------------------------------------|----|
E|--------------------------------------|----|

e|------------------------------------------|
B|------------------------------------------|
G|--------9-99--------7-77------------------|
D|--7-77--9-99--9-99--7-77-(Until-End)------|
A|--7-77--7-77--9-99--5-55------------------|
E|--5-55--------7-77------------------------|
Related for Friday tab