Guitaretab - guitar tabs
Song name
# A B C D E F G H I J K L M N O P Q R S T U V W X Y Z

Bowling For Soup - Here We Go tab

|-------------------------|
|Artist: Bowling for Soup |
|Song: Here we go         |
|-------------------------|

.:::Intro/Chorus:::.

Guitar 1
|------------|------------|------------|------------|
|------------|------------|------------|------------|
|------------|------------|------------|------------| x2
|------------|5--x-5------|------------|7--x-7------|
|5--x-5------|3--x-3------|3--x-3------|5--x-5------|
|3--x-3------|------------|1--x-1------|------------|

.:::Bridge:::.
|
Guitar 1
|------------|------------|------------|------------|
|------------|------------|------------|------------|
|------------|------------|------------|------------| x2
|------------|5--x-5------|------------|7--x-7------|
|5--x-5------|3--x-3------|3--x-3------|5--x-5------|
|3--x-3------|------------|1--x-1------|------------|

Guitar 2
||===================================================||
||------------|------------|------------|------------||
||------------|------------|------------|------------||
||------------|---------3p0|------------|---------3p0||
||5p3-3-5p3---|5-3--5p3----|3h5-3-5p3---|5p3-3-5p3---||
||----------5-|------------|----------5-|------------||
||------------|------------|------------|------------||
|                                                     |
||------------|------------|------------|------------||
||------------|------------|------------|------------||
||------------|---------3p0|------------|------------||
||5p3-3-5p3---|5-3--5p3----|3h5-3-5p3---|5p3---------||
||----------5-|------------|----------5-|----5p3-----||
||------------|------------|------------|--------5b-3||
||===================================================||

.:::Verse:::.

Guitar 1
|------------|------------|------------|------------|
|------------|------------|------------|------------|
|------------|------------|------------|------------| x4
|------------|5--x-5------|------------|7--x-7------|
|5--x-5------|3--x-3------|3--x-3------|5--x-5------|
|3--x-3------|------------|1--x-1------|------------|
[ Tab from: http://www.guitaretab.com/b/bowling-for-soup/165873.html ]
Guitar 2 - joins in the second half of the verse
|------------|------------|------------|------------|
|------------|------------|------------|------------|
|------------|------------|------------|------------| x2
|------------|5--5--5--5-5|------------|7--7--7--7-7|
|5--5--5--5--|3--3--3--3-3|3--1--1--1--|5--5--5--5-5|
|3--3--3--3--|------------|1--1--1--1--|------------|
 .  .  .  .   .  .  .  . . .  .  .  .   .  .  .  . .

.:::Solo:::. - I'm not sure about this part

Guitar 1
|------------|------------|------------|------------|
|------------|------------|------------|------------|
|------------|------------|------------|------------| x6
|------------|5--x-5------|------------|7--x-7------|
|5--x-5------|3--x-3------|3--x-3------|5--x-5------|
|3--x-3------|------------|1--x-1------|------------|

Guitar 2
||=======================================================|
||---------------|------------|------------|------------||
||---------------|------------|------------|------------||
||---------------|3-5~~-------|------------|3-5~~-------||
||0-3-(5-3-0)8x--|-------5-3-0|--(5-3-0)7x?|----------0-||
||---------------|------------|------------|-------2b---||
||---------------|------------|------------|------------||
|                                                       || 2X
||---------------|----------------|                     ||
||---------------|----------------|                     ||
||3p0-4p0-5p0-6p0|7p0-8p0-9p0-10~~|                     ||
||---------------|----------------|                     ||
||---------------|----------------|                     ||
||---------------|----------------|                     ||
||======================================================||

.:::Ending:::..

Guitar 1 + Guitar 2
|------------|
|------------|
|------------|
|------------|
|5~~~~~~~~~--|
|3~~~~~~~~~--|

Intro/Chorus
Bridge
Verse
Intro/Chorus
Bridge
Verse
Intro/Chorus
Intro/Chorus 2x
Verse - In the first part just mute: X---X---X---X at all strings
Intro/Chorus 2x
Solo
Ending

------------------------------------------------------|
Enjoy and rate ;)                                     |
If you'll find out what's wrong in the solo, mail me: | ondrej.rolecek@seznam.cz         
                    |
------------------------------------------------------|
Related for Here We Go tab
Advertisement will be closed in 10 seconds