Song name
# A B C D E F G H I J K L M N O P Q R S T U V W X Y Z

Bowling For Soup - Next Ex-girlfriend tab

hm= harmonics
pm= palm muting

INTRO GUITAR 1
E |-------------------------------------------------------------|
G |-------------------------------------------------------------|
B |--7-6-7---7-6-7---7-6-7-9-7-6-7---7-6-7---7-6-7---7-6-8-7-6-7|
D |-------------------------------------------------------------|
A |5-------4-------2--------------------------------------------|
E |--------------------------------3-------2-------0------------|
          (play 2 times)
GUITAR 2
E |-------------------------------------------------------------|
G |-------------------------------------------------------------|
B |7-------7-------4-------2------------------------------------|
D |7-------7-------4-------2-------5-------5-------2------7-----|
A |5-------4-------2-------0-------5-------5-------2------7-----|
E |--------------------------------3-------2-------0------5-----|
          (play 2 times)

VERSE
E |----------------------------------------------------------|
G |----------------------------------------------------------|
B |77777777--------------------------------------------------|
D |77777777777777775555555599997777--------------------------|
A |55555555777777775555555599997777--------------------------|
E |--------555555553333333377775555--------------------------|
pm ................................  (play 2 times)

PRECHORUS
E |----------------------------------------------------------------|
G |----------------------------------------------------------------|
B |------------------------------------------------3333333355555555|
D |5555555577777777999999995555555555555555777777773333333355555555|
A |5555555577777777999999995555555555555555777777771111111133333333|
E |333333335555555577777777333333333333333355555555----------------|
pm .. .. .... .. .... .. .... .. .... .. .... .. ..

CHORUS
E |-----------------------------------------------------------------|
G |-----------------------------------------------------------------|
B |7-7777777777777777-----------------------------------------------|
D |7-777777777777777755-555-555-555-577-777-777-777-----------------|
A |5-----------------55-555-555-555-577-777-777-777-----------------|
E |------------------333333333333333355555555555555-----------------|
hm                     .   .   .   .   .   .   .

E |----------------------------------------------------|
G |----------------------------------------------------| 
B |77777777777777774444444444444444-(play the hm again)|
D |77777777777777774444444444444444--------------------|
A |55555555555555552222222222222222--------------------|
E |----------------------------------------------------|

Play every thing all over again the comes th bridge

BRIDGE
E |-----------------------------------------------------|
G |-----------------------------------------------------|
B |--------7--------------------------------------------|
D |999977777-444542--(play 3 times)---------------------|
A |999977775-444542-------------------------------------|
E |77775555--222320-------------------------------------|
pm ........  ......

E |-----------------------------------------------------|
G |-----------------------------------------------------|
B |------------------------------------66667------------|
D |99997777--------------------66667777-----------------|
A |9999777722224444555577779999-------------------------|
E |77775555---------------------------------------------|
pm ........

After that, play the chorus 2 more times and then the intro one more time and then the songs over.
                            ENJOY                   
Tap to rate this tab
# A B C D E F G H I J K L M N O P Q R S T U V W X Y Z