Guitaretab - guitar tabs
Song name
# A B C D E F G H I J K L M N O P Q R S T U V W X Y Z

Bowling For Soup - I Melt With You tab

~ = let ring
x = rake
~~= vibrato

This is my first tab so please rate, thanks.

Intro
(0:00 - 0:12)
Guitar 1 (distorted)
E|-----------------------------------------------------|
B|-----------------------------------------------------|
G|-----------------------------------------------------|
D|--2-------------7------------------------------------| x2
A|--2-x12---------7-x12--------------------------------|
E|--0-------------5------------------------------------|

Guitar 2 (distorted)
E|-----------------------------------------------------|
B|-----------------------------------------------------|
G|--4-4-13--9--4-4-14-13-9-6---------------------------|
D|--x-x-x---x--x-x-x--x--x-x---------------------------| x2
A|--2-2-11--7--2-2-12-11-7-4---------------------------|
E|-----------------------------------------------------|

Verse 1
(0:12 - 0:35)
Guitar 1 (clean)
E|-----------------------------------------------------|
B|-----------------------------------------------------|
G|-----------------------------------------------------|
D|--2~-------------------7~----------------------------| x4
A|--2~-------------------7~----------------------------|
E|--0~-------------------5~----------------------------|

Guitar 2 (light distortion)
E|-----------------------------------------------------|
B|-----------------------------------------------------|
G|-----------------------------------------------------|
D|--6-2---2-6-2--7-2---2-7-4---------------------------| x4
A|------2------------2---------------------------------|
E|-----------------------------------------------------|

Chorus
(0:35 - 0:57)
Guitar 1
E|-----------------------------------------------------|
B|-----------------------------------------------------|
G|-----------------------------------------------------|
D|---2------------7------------------------------------| x4
A|---2-x12--------7-x12--------------------------------|
E|---0------------5------------------------------------|

Guitar 2
E|-----------------------------------------|
B|-----------------------------------------|
G|----------------4-14-13-9-6--------------|
D|---2------------x-x--x--x-x--------------| x3
A|---2-x12--------2-12-11-7-4--------------|
E|---0-------------------------------------|

Guitar 2 Continued with:
E|-----------------------------------------------------|
B|-----------------------------------------------------|
G|-----------------------------------------------------|
D|---2------------7------------------------------------|
A|---2-x12--------7-x12--------------------------------|
E|---0------------5------------------------------------|

Verse 2
(0:58 - 1:22)
Guitar 1
E|-----------------------------------------------------|
B|-----------------------------------------------------|
G|-----------------------------------------------------|
D|--2~-------------------7~----------------------------| x3
A|--2~-------------------7~----------------------------|
E|--0~-------------------5~----------------------------|

Continued:
E|---------------------------|
B|---------------------------|
G|---------------------------|
D|--9--6-6-4-2---------------|
A|--9--6-6-4-2---------------|
E|--7--4-4-2-0---------------|

Guitar 2 (light distortion)
E|-----------------------------------------------------|
B|-----------------------------------------------------|
G|-----------------------------------------------------|
D|--6-2---2-6-2--7-2---2-7-4---------------------------| x3
A|------2------------2---------------------------------|
E|-----------------------------------------------------|

Continued:
E|-----------------------------------------------------|
B|-----------------------------------------------------|
G|---16--13-13-11-9------------------------------------|
D|---x---x--x--x--x------------------------------------|
A|---14--11-11-9--7------------------------------------|
E|-----------------------------------------------------|

Chorus
(1:22 - 1:45)
Guitar 1
E|-----------------------------------------------------|
B|-----------------------------------------------------|
G|-----------------------------------------------------|
D|---2------------7------------------------------------| x4
A|---2-x12--------7-x12--------------------------------|
E|---0------------5------------------------------------|

Guitar 2
E|-----------------------------------------|
B|-----------------------------------------|
G|----------------4-14-13-9-6--------------|
D|---2------------x-x--x--x-x--------------| x3
A|---2-x12--------2-12-11-7-4--------------|
E|---0-------------------------------------|

Guitar 2 Continued with:
E|-----------------------------------------------------|
B|-----------------------------------------------------|
G|-----------------------------------------------------|
D|---2------------7------------------------------------|
A|---2-x12--------7-x12--------------------------------|
E|---0------------5------------------------------------|

Bridge 1
(1:45 - 1:56)
Guitar 1
E|-----------------------------|
B|-----------------------------|
G|---6~------------------------|
D|---6~------------------------| x4
A|---4~------------------------|
E|-----------------------------|

Guitar 2
E|-----------------|-----------------------------------| Play as many as
B|-----------------|------12-11-9-11-12-11-9-----------| necessary.
G|-----------------|-----------------------------------|
D|----6~~-(vibrato)|-----------------------------------|
A|-----------------|-----------------------------------|
E|-----------------|-----------------------------------|
[ Tab from: http://www.guitaretab.com/b/bowling-for-soup/187757.html ]
Verse 3 (Without vocals but with kazoo's)
(1:56 - 2:08)
Both guitars:
E|-----------------------------------------------------|
B|-----------------------------------------------------|
G|-----------------------------------------------------|
D|--2-------------7------------------------------------| x2
A|--2-x12---------7-x12--------------------------------|
E|--0-------------5------------------------------------|

Chorus
(2:08 - 2:31)
Guitar 1
E|-----------------------------------------------------|
B|-----------------------------------------------------|
G|-----------------------------------------------------|
D|---2------------7------------------------------------| x4
A|---2-x12--------7-x12--------------------------------|
E|---0------------5------------------------------------|

Guitar 2
E|-----------------------------------------|
B|-----------------------------------------|
G|----------------4-14-13-9-6--------------|
D|---2------------x-x--x--x-x--------------| x3
A|---2-x12--------2-12-11-7-4--------------|
E|---0-------------------------------------|

Guitar 2 Continued with:
E|-----------------------------------------------------|
B|-----------------------------------------------------|
G|-----------------------------------------------------|
D|---2------------7------------------------------------|
A|---2-x12--------7-x12--------------------------------|
E|---0------------5------------------------------------|

Bridge 2
(2:31 - 2:42)
Guitar 1
E|-----------------------------|
B|-----------------------------|
G|---6~------------------------|
D|---6~------------------------| x4
A|---4~------------------------|
E|-----------------------------|

Guitar 2
E|-----------------|-----------------------------------| Play as many as
B|-----------------|------12-11-9-11-12-11-9-----------| necessary.
G|-----------------|-----------------------------------|
D|---6~~--(vibrato)|-----------------------------------|
A|-----------------|-----------------------------------|
E|-----------------|-----------------------------------|

Breakdown
(2:42 - 2:54)
Only one guitar here.
E|--0~--------0~----------0~-----------0~-------------------------|
B|--0~--------2~----------0~-----------2~-------------------------|
G|--1~--------2~----------1~-----------2~-------------------------|
D|--2~--------2~----------2~-----------2~-------------------------|
A|--2~--------0~----------2~-----------0~-------------------------|
E|--0~--------------------0~--------------------------------------|

Breakdown continued
(2:54 - 3:05)
Both guitars
E|-----------------------------------------------------|
B|-----------------------------------------------------|
G|-----------------------------------------------------|
D|--2-------------7------------------------------------| x2
A|--2-x12---------7-x12--------------------------------|
E|--0-------------5------------------------------------|

Chorus
(3:05 - 3:28)
Guitar 1
E|-----------------------------------------------------|
B|-----------------------------------------------------|
G|-----------------------------------------------------|
D|---2------------7------------------------------------| 3x
A|---2-x12--------7-x12--------------------------------|
E|---0------------5------------------------------------|

E|-----------------------------------------------------|
B|-----------------------------------------------------|
G|-----------------------------------------------------|
D|---2-------------------------------------------------|
A|---2-x12---------------------------------------------|
E|---0-------------------------------------------------|

Guitar 2
E|-----------------------------------------|
B|-----------------------------------------|
G|----------------4-14-13-9-6--------------|
D|---2------------x-x--x--x-x--------------| x3
A|---2-x12--------2-12-11-7-4--------------|
E|---0-------------------------------------|

E|-----------------------------------------------------|
B|-----------------------------------------------------|
G|----------------9-11-13-14-13-7----------------------|
D|---2------------x-x--x--x--x--x----------------------|
A|---2-x12--------7-9--11-12-11-9----------------------|
E|---0-------------------------------------------------|

Chorus
(3:28 - 4:02)
Guitar 1
E|-----------------------------------------------------|
B|-----------------------------------------------------|
G|-----------------------------------------------------|
D|---2------------7------------------------------------| x4
A|---2-x12--------7-x12--------------------------------|
E|---0------------5------------------------------------|

Guitar 2
E|-----------------------------------------|
B|-----------------------------------------|
G|----------------4-14-13-9-6--------------|
D|---2------------x-x--x--x-x--------------| x3
A|---2-x12--------2-12-11-7-4--------------|
E|---0-------------------------------------|

Guitar 2 Continued with:
E|-----------------------------------------------------|
B|-----------------------------------------------------|
G|-----------------------------------------------------|
D|---2------------7------------------------------------|
A|---2-x12--------7-x12--------------------------------|
E|---0------------5------------------------------------|

Both Guitars end on
E|-----------------------------------------------------|
B|-----------------------------------------------------|
G|-----------------------------------------------------|
D|--2~-------------------------------------------------|
A|--2~-------------------------------------------------|
E|--0~-------------------------------------------------|
Related for I Melt With You tab
Advertisement will be closed in 10 seconds