Song name
# A B C D E F G H I J K L M N O P Q R S T U V W X Y Z

Bowling For Soup - My Wena tab

MY WENA - Bowling For Soup

tabber: paul westerink
mail: paul11ajax@hotmail.com

Tuning:
(Lead) Guitar 1: Standard (E A D G B E)
(Rhythm) Guitar 2: Standard (E A D G B E)


intro - guitar 2
|-----------------------------------|
|-----------------------------------|
|-----------------------------------|
|--5-5-5-5-5-5-5-5-2-2-2-2-2-2-2-2--|
|--5-5-5-5-5-5-5-5-2-2-2-2-2-2-2-2--|
|--3-3-3-3-3-3-3-3-0-0-0-0-0-0-0-0--|x2

intro - guitar 1
|--------5--2h3--2-2-2-2-3-2----|
|----------------------------5--|
|---2/4-------------------------|
|-------------------------------|
|-------------------------------|
|-------------------------------|

|-------5--2h3--2-2-2-2-3-2-------|
|---------------------------5-0~--|
|--2/4----------------------------|
|---------------------------------|
|---------------------------------|
|---------------------------------|


verse
|------------------------------------------------------------------|
|------------------------------------------------------------------|
|--------------------------------------------------------------7-7-|
|----------------------------------5-5-5-5-5-5-5-5-7-7-7-7-7-7-7-7-|
|--5-5-5-5-5-5-5-5-2-2-2-2-2-2-2-2-3-3-3-3-3-3-3-3-5-5-5-5-5-5-5-5-|
|--3-3-3-3-3-3-3-3-0-0-0-0-0-0-0-0---------------------------------|
pm . . . . . . . . . . . . . . . . . . . . . . . . . . . . . . 

|------------------------------------------------------------------|
|------------------------------------------------------------------|
|----------------------------------------------------------7-7-7-7-|
|----------------------------------5-5-5-5-5-5-5-5-7-7-7-7-7-7-7-7-|
|--5-5-5-5-5-5-5-5-2-2-2-2-2-2-2-2-3-3-3-3-3-3-3-3-5-5-5-5-5-5-5-5-|
|--3-3-3-3-3-3-3-3-0-0-0-0-0-0-0-0---------------------------------|
pm . . . . . . . . . . . . . . . . . . . . . . . . . . . . 


prechorus
|------------------------------------|
|------------------------------------|
|--4-4-4-4-4-4-4-4-------------------|
|--4-4-4-4-4-4-4-4-2-2-2-2-2-2-2-2-2-|
|--2-2-2-2-2-2-2-2-2-2-2-2-2-2-2-2-2-|
|------------------0-0-0-0-0-0-0-0-0-|

|------------------------------------|
|------------------------------------|
|--4-4-4-4-4-4-4-4---5-5-5--7--7-----|
|--4-4-4-4-4-4-4-4---5-5-5--7--7-----|
|--2-2-2-2-2-2-2-2---3-3-3--5--5-----|
|------------------------------------|


chorus
|------------------------------------|
|------------------------------------|
|--5-5-5-5---------7-7-7-7-7-7-7-7---|
|--5-5-5-5-5-5-5-5-7-7-7-7-7-7-7-7---|
|--3-3-3-3-5-5-5-5-5-5-5-5-5-5-5-5---|
|----------3-3-3-3-------------------|x2

|------------------------------------------------------|
|------------------------------------------------------|
|--5-5-5-5---------4-4-4-------5-5-5-5-5-5-5-5--7--7~--|
|--5-5-5-5-5-5-5-5-4-4-4--2~---5-5-5-5-5-5-5-5--7--7~--|
|--3-3-3-3-5-5-5-5-2-2-2--2~---3-3-3-3-3-3-3-3--5--5~--|
|----------3-3-3-3--------0~---------------------------|


interlude - guitar 2
|----------------------------------|
|----------------------------------|
|----------------------------------|
|--5-5-5-5-5-5-5-5-2-2-2-2-2-2-2-2-|
|--5-5-5-5-5-5-5-5-2-2-2-2-2-2-2-2-|
|--3-3-3-3-3-3-3-3-0-0-0-0-0-0-0-0-|x2
interlude - guitar 1
|--------5--2h3--2-2-2-2-3-2----|
|----------------------------5--|
|---2/4-------------------------|
|-------------------------------|
|-------------------------------|
|-------------------------------|

|-------5--2h3--2-2-2-2-3-2-------|
|---------------------------5-0~--|
|--2/4----------------------------|
|---------------------------------|
|---------------------------------|
|---------------------------------|

verse
|------------------------------------------------------------------|
|------------------------------------------------------------------|
|--------------------------------------------------------------7-7-|
|----------------------------------5-5-5-5-5-5-5-5-7-7-7-7-7-7-7-7-|
|--5-5-5-5-5-5-5-5-2-2-2-2-2-2-2-2-3-3-3-3-3-3-3-3-5-5-5-5-5-5-5-5-|
|--3-3-3-3-3-3-3-3-0-0-0-0-0-0-0-0---------------------------------|
pm . . . . . . . . . . . . . . . . . . . . . . . . . . . . . . 

|------------------------------------------------------------------|
|------------------------------------------------------------------|
|----------------------------------------------------------7-7-7-7-|
|----------------------------------5-5-5-5-5-5-5-5-7-7-7-7-7-7-7-7-|
|--5-5-5-5-5-5-5-5-2-2-2-2-2-2-2-2-3-3-3-3-3-3-3-3-5-5-5-5-5-5-5-5-|
|--3-3-3-3-3-3-3-3-0-0-0-0-0-0-0-0---------------------------------|
pm . . . . . . . . . . . . . . . . . . . . . . . . . . . . 


prechorus
|------------------------------------|
|------------------------------------|
|--4-4-4-4-4-4-4-4-------------------|
|--4-4-4-4-4-4-4-4-2-2-2-2-2-2-2-2-2-|
|--2-2-2-2-2-2-2-2-2-2-2-2-2-2-2-2-2-|
|------------------0-0-0-0-0-0-0-0-0-|

|------------------------------------|
|------------------------------------|
|--4-4-4-4-4-4-4-4---5-5-5--7--7-----|
|--4-4-4-4-4-4-4-4---5-5-5--7--7-----|
|--2-2-2-2-2-2-2-2---3-3-3--5--5-----|
|------------------------------------|


chorus
|------------------------------------|
|------------------------------------|
|--5-5-5-5---------7-7-7-7-7-7-7-7---|
|--5-5-5-5-5-5-5-5-7-7-7-7-7-7-7-7---|
|--3-3-3-3-5-5-5-5-5-5-5-5-5-5-5-5---|
|----------3-3-3-3-------------------|x2

|---------------------------------------------------------------|
|---------------------------------------------------------------|
|--5-5-5-5---------4-4-4-------5-5-5-5-5-5-5-5--7-7-7-7-7-7-7-7-|
|--5-5-5-5-5-5-5-5-4-4-4--2~---5-5-5-5-5-5-5-5--7-7-7-7-7-7-7-7-|
|--3-3-3-3-5-5-5-5-2-2-2--2~---3-3-3-3-3-3-3-3--5-5-5-5-5-5-5-5-|
|----------3-3-3-3--------0~------------------------------------|

|-------------------------|
|-------------------------|
|--5-5-5-5-5-5-5-5--7--7--|
|--5-5-5-5-5-5-5-5--7--7--|
|--3-3-3-3-3-3-3-3--5--5--|
|-------------------------|


bridge
|-----------------------------------------------|
|-----------------------------------------------|
|------------------7-7-7-7-7-7-7-7-----------7--|
|--7-7-7-7-7-7-7-7-7-7-7-7-7-7-7-7--5--5--2--7--|
|--7-7-7-7-7-7-7-7-5-5-5-5-5-5-5-5--5--5--2--5--|
|--5-5-5-5-5-5-5-5------------------3--2--0-----|x2

|-----------------------------------|
|-----------------------------------|
|--5-5-5-5-5-5-5-5-7-7-7-7-7-7-7-7--|
|--5-5-5-5-5-5-5-5-7-7-7-7-7-7-7-7--|
|--3-3-3-3-3-3-3-3-5-5-5-5-5-5-5-5--|
|-----------------------------------|x2

|--------------------------------------|
|--------------------------------------|
|-----------7---5-5-5-5-5-5-5-5--7--5--|
|--5--5--2--7---5-5-5-5-5-5-5-5--7--5--|
|--5--5--2--5---3-3-3-3-3-3-3-3--5--3--|
|--3--2--0-----------------------------|


prechorus
|-----------------------------------|
|-----------------------------------|
|------------------------------7-7--|
|--5-5-5-5---------7-7-7-7-7-7-7-7--|
|--3-3-3-3-5-5-5-5-5-5-5-5-5-5-5-5--|
|----------3-3-3-3------------------|x2
pm . . . . . . . . . . . . . .

|-------------------------|
|-------------------------|
|-------------------4-----|
|--5-5-5-5----------4--2--|
|--3-3-3-3-5-5-5-5--2--2--|
|----------3-3-3-3-----0--|

|-----------------------------------|
|-----------------------------------|
|--5-5-5-5-5-5-5-5-7-7-7-7-7-7-7-7--|
|--5-5-5-5-5-5-5-5-7-7-7-7-7-7-7-7--|
|--3-3-3-3-3-3-3-3-5-5-5-5-5-5-5-5--|
|-----------------------------------|


chorus/outro
|------------------------------------|
|------------------------------------|
|--5-5-5-5---------7-7-7-7-7-7-7-7---|
|--5-5-5-5-5-5-5-5-7-7-7-7-7-7-7-7---|
|--3-3-3-3-5-5-5-5-5-5-5-5-5-5-5-5---|
|----------3-3-3-3-------------------|x2

|---------------------------------------------------------|
|---------------------------------------------------------|
|--5-5-5-5---------4-4-4-------5-5-5-5-5-5-5-5--7--7------|
|--5-5-5-5-5-5-5-5-4-4-4--2~---5-5-5-5-5-5-5-5--7--7--5~--|
|--3-3-3-3-5-5-5-5-2-2-2--2~---3-3-3-3-3-3-3-3--5--5--5~--|
|----------3-3-3-3--------0~--------------------------3~--|


that's it!
check out my profile for more of my tabs
comment/rate/correct/feedback please :)
thanks!
Tap to rate this tab
# A B C D E F G H I J K L M N O P Q R S T U V W X Y Z