Song name
# A B C D E F G H I J K L M N O P Q R S T U V W X Y Z

Bowling For Soup - Ill Always Remember You That Way tab

I'LL ALWAYS REMEMBER YOU THAT WAY - Bowling For Soup

standard tuning.

tabber: paul westerink
mail: paul11ajax@hotmail.com



intro

I remember watching the sunset 
You reached out and touched my hand 
That night is like a picture 
Framed in my mind 
|-----------|
|--7-7-7-7--|
|--7-7-7-7--|
|--7-7-7-7--|
|-----------|
|-----------|x8


Tell me do you ever think about that
|---------------------|
|--3-3--5-5--7-7-7-7--|
|--4-4--6-6--7-7-7-7--|
|--5-5--7-7--7-7-7-7--|
|---------------------|
|---------------------|


I remember making out in the back seat 
You stuck hand up your shirt 
 
|-----------|
|-----------|
|--7-7-7-7--|
|--7-7-7-7--|
|--5-5-5-5--|
|-----------|x8
pm . . . .



verse

And i was so nervous 
My heart was racing and my stomach hurt
|---------------------------------------------------|
|---------------------------------------------------|
|----------------------------------7-7-7-7-7-7-7-7--|
|--5-5-5-5-5-5-5-5-7-7-7-7-7-7-7-7-7-7-7-7-7-7-7-7--|
|--5-5-5-5-5-5-5-5-7-7-7-7-7-7-7-7-5-5-5-5-5-5-5-5--|
|--3-3-3-3-3-3-3-3-5-5-5-5-5-5-5-5------------------|
pm . . . . . . . . . . . . . . . .




prechorus

Sometimes i wonder 
(do you ever think about me) 
Sometimes i wonder 
(do you ever think about me) 
|-------------------------------------------------------------------------|
|-------------------------------------------------------------------------|
|-------------------------------------------------------------------------|
|--5-5-5-5-5-5-5-5--7-7-7-7-7-7-7-7--5-5-5-5-5-5-5-5--7-7-7-7-7-7-7-7--5--|
|--5-5-5-5-5-5-5-5--7-7-7-7-7-7-7-7--5-5-5-5-5-5-5-5--7-7-7-7-7-7-7-7--5--|
|--3-3-3-3-3-3-3-3--5-5-5-5-5-5-5-5--3-3-3-3-3-3-3-3--5-5-5-5-5-5-5-5--3--|



chorus

I'll always remember you 
(i'll always remember you that way) 
I'll always remember you 
|------------------------------------|
|------------------------------------|
|--7-7-7-7-7-7-7-7-------------------|
|--7-7-7-7-7-7-7-7--5-5-5-5-5-5-5-5--|
|--5-5-5-5-5-5-5-5--5-5-5-5-5-5-5-5--|
|-------------------3-3-3-3-3-3-3-3--|x3

The years have gone 
The times have changed 
I don't recall much from those days 
|------------------------------------|
|------------------------------------|
|------------------------------------|
|--2-2-2-2-2-2-2-2--5-5-5-5-5-5-5-5--|
|--2-2-2-2-2-2-2-2--5-5-5-5-5-5-5-5--|
|--0-0-0-0-0-0-0-0--3-3-3-3-3-3-3-3--|x2

I'll always remember you that way
|-----------------------------------------------------------|
|-----------------------------------------------------------|
|-------------------------------------7777777777777777------|
|--2-2-2-2-2-2-2-2--5-5-5-5--7-7-7-7--7777777777777777--0~--|
|--2-2-2-2-2-2-2-2--5-5-5-5--7-7-7-7--5555555555555555------|
|--0-0-0-0-0-0-0-0--3-3-3-3--5-5-5-5------------------------|


I remember how you gave me your jacket 
It must've been in winter time 
They were playing our song 
|-----------|
|--7-7-7-7--|
|--7-7-7-7--|
|--7-7-7-7--|
|-----------|
|-----------|x6

We were singing along 
We knew every line 
|---------------------|
|--3-3--5-5--7-7-7-7--|
|--4-4--6-6--7-7-7-7--|
|--5-5--7-7--7-7-7-7--|
|---------------------|
|---------------------|


I remember i was freezing my ass off 
And you made me give you my coat 

|-----------|
|-----------|
|--7-7-7-7--|
|--7-7-7-7--|
|--5-5-5-5--|
|-----------|x8
pm . . . .


And i don't remember the song 
Or even if i had a radio 
|---------------------------------------------------|
|---------------------------------------------------|
|----------------------------------7-7-7-7-7-7-7-7--|
|--5-5-5-5-5-5-5-5-7-7-7-7-7-7-7-7-7-7-7-7-7-7-7-7--|
|--5-5-5-5-5-5-5-5-7-7-7-7-7-7-7-7-5-5-5-5-5-5-5-5--|
|--3-3-3-3-3-3-3-3-5-5-5-5-5-5-5-5------------------|
pm . . . . . . . . . . . . . . . .


prechorus

Sometimes i wonder 
(do you ever think about me) 
Sometimes i wonder 
(do you ever think about me) 
|-------------------------------------------------------------------------|
|-------------------------------------------------------------------------|
|-------------------------------------------------------------------------|
|--5-5-5-5-5-5-5-5--7-7-7-7-7-7-7-7--5-5-5-5-5-5-5-5--7-7-7-7-7-7-7-7--5--|
|--5-5-5-5-5-5-5-5--7-7-7-7-7-7-7-7--5-5-5-5-5-5-5-5--7-7-7-7-7-7-7-7--5--|
|--3-3-3-3-3-3-3-3--5-5-5-5-5-5-5-5--3-3-3-3-3-3-3-3--5-5-5-5-5-5-5-5--3--|



chorus

I'll always remember you 
(i'll always remember you that way) 
I'll always remember you 
|------------------------------------|
|------------------------------------|
|--7-7-7-7-7-7-7-7-------------------|
|--7-7-7-7-7-7-7-7--5-5-5-5-5-5-5-5--|
|--5-5-5-5-5-5-5-5--5-5-5-5-5-5-5-5--|
|-------------------3-3-3-3-3-3-3-3--|x3

The years have gone 
The times have changed 
I don't recall much from those days 
|------------------------------------|
|------------------------------------|
|------------------------------------|
|--2-2-2-2-2-2-2-2--5-5-5-5-5-5-5-5--|
|--2-2-2-2-2-2-2-2--5-5-5-5-5-5-5-5--|
|--0-0-0-0-0-0-0-0--3-3-3-3-3-3-3-3--|x2

I'll always remember you that way
|-------------------------------------------------------|
|-------------------------------------------------------|
|-------------------------------------7777777777777777--|
|--2-2-2-2-2-2-2-2--5-5-5-5--7-7-7-7--7777777777777777--|
|--2-2-2-2-2-2-2-2--5-5-5-5--7-7-7-7--5555555555555555--|
|--0-0-0-0-0-0-0-0--3-3-3-3--5-5-5-5--------------------|


Do you remember the moonlight in my hair 
I remember pulling your hair 
I told my friends that it was love 
I told mine you couldn't get enough 
|--------------------------------------|
|--------------------------------------|
|--------------------------------------|
|--------------------------------------|
|--5--0-----/(9)\(7)--5--0---------5~--|
|--------3------------------3~---------|

I'll always remember you 
Always remember you 


Bridge

The moon and the stars 
The back of my car 
That song that was on 
The back of my car 
|------------------------------------|
|------------------------------------|
|------------------------------------|
|--7-7-7-7-7-7-7-7--5-5-5-5-5-5-5-5--|
|--7-7-7-7-7-7-7-7--5-5-5-5-5-5-5-5--|
|--5-5-5-5-5-5-5-5--3-3-3-3-3-3-3-3--|x2

The memories are different 
But we felt the same 
And i'll always remember you that way 
|-----------------------------------------------------|
|-----------------------------------------------------|
|-----------------------------------------------------|
|--4-4-4-4-4-4-4-4--2-2-2-2-2-2-2-2--5-5-5-5-5-5-5-5--|
|--5-5-5-5-5-5-5-5--2-2-2-2-2-2-2-2--5-5-5-5-5-5-5-5--|
|--2-2-2-2-2-2-2-2--0-0-0-0-0-0-0-0--3-3-3-3-3-3-3-3--|


outro

I'll always remember you 
(i'll always remember you that way) 
I'll always remember you 
|------------------------------------|
|------------------------------------|
|--7-7-7-7-7-7-7-7-------------------|
|--7-7-7-7-7-7-7-7--5-5-5-5-5-5-5-5--|
|--5-5-5-5-5-5-5-5--5-5-5-5-5-5-5-5--|
|-------------------3-3-3-3-3-3-3-3--|x3

The years have gone 
The times have changed 
I don't recall much from those days 
|------------------------------------|
|------------------------------------|
|------------------------------------|
|--2-2-2-2-2-2-2-2--5-5-5-5-5-5-5-5--|
|--2-2-2-2-2-2-2-2--5-5-5-5-5-5-5-5--|
|--0-0-0-0-0-0-0-0--3-3-3-3-3-3-3-3--|x3


I wish sometimes i was back in those days 
I'll always remember you that way 
|-------------------------------------|
|-------------------------------------|
|-------------------------------------|
|--2-2-2-2-2-2-2-2--5-5-5-5--7-7-7-7--|
|--2-2-2-2-2-2-2-2--5-5-5-5--7-7-7-7--|
|--0-0-0-0-0-0-0-0--3-3-3-3--5-5-5-5--|



(always remember) 
I'll always remember you that way 
(always remember) 
|------------------------------------|
|------------------------------------|
|--7-7-7-7-7-7-7-7-------------------|
|--7-7-7-7-7-7-7-7--5-5-5-5-5-5-5-5--|
|--5-5-5-5-5-5-5-5--5-5-5-5-5-5-5-5--|
|-------------------3-3-3-3-3-3-3-3--|x3


I'll always remember you that way
|-----------------------------------------|
|-----------------------------------------|
|--7-7-7-7-7-7-7-7--------------------7~--|
|--7-7-7-7-7-7-7-7--5-5-5-5--7-7-7-7--7~--|
|--5-5-5-5-5-5-5-5--5-5-5-5--7-7-7-7--5~--|
|-------------------3-3-3-3--5-5-5-5------|


thats it 
Tap to rate this tab
 
# A B C D E F G H I J K L M N O P Q R S T U V W X Y Z