Song name
# A B C D E F G H I J K L M N O P Q R S T U V W X Y Z

Bowling For Soup - Only Young tab

Intro:

guitar I
e ------------------------------------------------------------------------|
B ------------------------------------------------------------------------|
G -----5------------------------------------------------------------------|
D -2---5--5---4-----------------------------------------------------------|
A -2---3--5---5-----------------------------------------------------------|
E -0------3---2-----------------------------------------------------------|

Guitar II
--------------------------------------------------------------------|
--------------------------------------------------------------------|
-----4-5-2-4-----7-4-2----------------------------------------------|
--2----------5---------4--------------------------------------------|
--------------------------------------------------------------------|
--------------------------------------------------------------------|


Verse:

e -----------------------------------------------------|
B -----------------------------------------------------|
G -----------5555555-----------------------------------|
D -2222222---5555555--5555555---4444444----------------|
A -2222000---3333333--5555555---5555555----------------|
E -0000000----------- 3333333---2222222----------------|
    xx xx x     xx xx x   xx xx x    xx xx x (mute)

Pre-chorus:

---------------------------------------------------------------------------|
---------------------------------------------------------------------------|
----5---------7------------------------------------------------------------|
----5---------7------------------------------------------------------------|
----3---------5------------------------------------------------------------|
---------------------------------------------------------------------------|


Chorus:

-----------------------------------------------------------------|
-----------------------------------------------------------------|
-----------7----------5------------------------------------------|
-----5-----7----2-----5------------------------------------------|
-----5-----5----2-----3------------------------------------------|
-----3----------0------------------------------------------------|


Intro, Verse [...]
Pre-chorus x2
Chorus

Bridge:
part I

------------------------------------------------------|
------------------------------------------------------|
------------------------------------------------------|
--2---------4---------5---------2---------------------|
--2--(x4)---5--(x4)---5--(x4)---0--(x4)---------------|
--0---------2---------3---------x---------------------|

part II

----------------------------------------------------|
----------------------------------------------------|
------------------------------5---------------------|
--2---------4---------5-------5---------------------|
--2--(x4)---5--(x4)---5--(x4)-3--(x4)---------------|
--0---------2---------3-----------------------------|


After Bridge:

G,D,E,C
G,D and :

--------------------------------|
--------------------------------|
--------------------------------|
----2---------------------------|   >>> mute
----2---------------------------|
----0---------------------------|

And chorus , end:


--------------------------------|
--------------------------------|
--------------------------------|
----5---------------------------|
----5---------------------------|
----3---------------------------|
Tap to rate this tab
 
# A B C D E F G H I J K L M N O P Q R S T U V W X Y Z