Song name
# A B C D E F G H I J K L M N O P Q R S T U V W X Y Z

Bowling For Soup - No Hablo Ingles tab

Bowling For Soup - No hablo inglÚs

tabber: paul westerink
mail: paul11ajax@hotmail.com

Intro
|------|
|------|
|------|
|--7\--|
|--7\--|
|--5\--|

|-------------------|
|-------------------|
|-------------------|
|-------------------|
|--0--4-5---5---4-5-|
|---------2---0-----|x2


|------------------------|
|------------------------|
|------------------7-77--|
|--7-77--4-44--2-2-7-77--|
|--7-77--4-44--2-2-5-55--|
|--5-55--2-22--0-0-------|x2

verse 1
|--------------------------------------------|
|--------------------------------------------|
|--------------------------------------------|
|-------------------------------------7-6-4--|
|--0--4-5---5---4-5--0--4-5---5---4-5-5-4-2--|
|---------2---0-------------2---0------------|x4

prechorus
|----------------------------------------------|
|----------------------------------------------|
|------------77777777--------------------------|
|--55555555--77777777--77777777--9999-7-9-7-5--|
|--55555555--55555555--77777777--9999-7-9-7-5--|
|--33333333------------55555555--7777-5-7-5-3--|

|------------------------------|
|------------------------------|
|------------77777777----------|
|--55555555--77777777--2222-2--|
|--55555555--55555555--2222-2--|
|--33333333------------0000-0--|
                    pm ....

chorus
|-------------------------|
|-------------------------|
|------------------7-777--|
|--7-77--4-44--2-2-7-777--|
|--7-77--4-44--2-2-5-555--|
|--5-55--2-22--0-0--------|x4

verse 2
|--------------------------------------------|
|--------------------------------------------|
|--------------------------------------------|
|-------------------------------------7-6-4--|
|--0--4-5---5---4-5--0--4-5---5---4-5-5-4-2--|
|---------2---0-------------2---0------------|x3

|---------------------------------|
|---------------------------------|
|---------------------------------|
|---------------------7\---7-6-4--|
|--0--4-5---5---4-5---5\---5-4-2--|
|---------2---0-------------------|


prechorus
|----------------------------------------------|
|----------------------------------------------|
|------------77777777--------------------------|
|--55555555--77777777--77777777--9999-7-9-7-5--|
|--55555555--55555555--77777777--9999-7-9-7-5--|
|--33333333------------55555555--7777-5-7-5-3--|

|------------------------------|
|------------------------------|
|------------77777777----------|
|--55555555--77777777--2222-2--|
|--55555555--55555555--2222-2--|
|--33333333------------0000-0--|
                    pm ....

chorus
|-------------------------|
|-------------------------|
|------------------7-777--|
|--7-77--4-44--2-2-7-777--|
|--7-77--4-44--2-2-5-555--|
|--5-55--2-22--0-0--------|x4


bridge
here's the spanish sounding part, goes something like this:

     E           F
|-------0-----------1-------|
|--------0-----------1------|
|-----1----1-------2---1----|
|----2-------2----3------2--|
|---2------------3----------|
|--0------------1-----------|x2
get the idea?


|-------------------------------|
|-------------------------------|
|-------------------------------|
|--2--2--2--22-0-3--3--3--3-5-3-|
|--2--2--2--22-0-3--3--3--3-5-3-|
|--0--0--0--00-0-1--1--1--1-3-1-|x3

|--------------------|
|--------------------|
|--------------------|
|--2--2--2--22-0-3\--|
|--2--2--2--22-0-3\--|
|--0--0--0--00-0-1\--|


chorus/outro
|-------------------------|
|-------------------------|
|------------------7-777--|
|--7-77--4-44--2-2-7-777--|
|--7-77--4-44--2-2-5-555--|
|--5-55--2-22--0-0--------|x16
slowly fade out
Tap to rate this tab
 
# A B C D E F G H I J K L M N O P Q R S T U V W X Y Z