Song name
# A B C D E F G H I J K L M N O P Q R S T U V W X Y Z

Bowling For Soup - Sad Sad Situation tab

 BOWLING FOR SOUP - SAD SAD SITUATION


              TABBED BY: MIRKO

              E-MAIL: mickmick2@web.de

              TUNING: STANDARD


 VERSE:
|---------------------------------------------------------------|
|---------------------------------------------------------------|
|---------------------------------------------------------------|
|------------------------------------7--7-7-7-7-----------------|
|---7--7-7-7-7-7-7-7-7-7-7-7-7-7-7---5--5-5-5-5-7--7-7-7-7-7-7--|
|---5--5-5-5-5-5-5-5-5-5-5-5-5-5-5--------------5--5-5-5-5-5-5--|


|---------------------------------------------------------------|
|---------------------------------------------------------------|
|---------------------------------------------------------------|
|------------------------------------7--7-7-7-7-----------------|
|---7--7-7-7-7-7-7-7-7-7-7-7-7-7-7---5--5-5-5-5-7--7-7-7-7-7-7--|
|---5--5-5-5-5-5-5-5-5-5-5-5-5-5-5--------------5--5-5-5-5-5-5--|

PRE-CHORUS:
|---------------------------------------------------|
|---------------------------------------------------|
|---------------------------------------------------|
|---7-7-7-7-7-7-7-7-----------------7-7-7-7-7-7-7-7-|
|---5-5-5-5-5-5-5-5-7-7-7-7-7-7-7-7-5-5-5-5-5-5-5-5-|
|-------------------5-5-5-5-5-5-5-5-----------------|


-------------------------------------------------|
-------------------------------------------------|
-------------------------------------------------|
-----------------9--9--9-9-9-9--9--9--9-9-9-9-9--|
-7-7-7-7-7-7-7-7-7--7--7-7-7-7--7--7--7-7-7-7-7--|
-5-5-5-5-5-5-5-5---------------------------------|


CHORUS:
|--------------------------------------------------------------------|
|--------------------------------------------------------------------|
|--------------------------------------------------------------------|
|-------------------5-5-5-5-5-5-5-5-----------------7-7-7-7-7-7-7-7--|
|---7-7-7-7-7-7-7-7-3-3-3-3-3-3-3-3-5-5-5-5-5-5-5-5-5-5-5-5-5-5-5-5--|
|---5-5-5-5-5-5-5-5-----------------3-3-3-3-3-3-3-3------------------|


|--------------------------------------------------------------------|
|--------------------------------------------------------------------|
|--------------------------------------------------------------------|
|-------------------5-5-5-5-5-5-5-5-----------------7-7-7-7-7-7-7-7--|
|---7-7-7-7-7-7-7-7-3-3-3-3-3-3-3-3-5-5-5-5-5-5-5-5-5-5-5-5-5-5-5-5--|
|---5-5-5-5-5-5-5-5-----------------3-3-3-3-3-3-3-3------------------|

POST-CHORUS:
|----------------------------------------|
|----------------------------------------|
|----------------------------------------|
|---------------------------------7-7-7--|
|--7--7-7-7-7-7-7-7-7-7-7-7-7-7-7-5-5-5--|
|--5--5-5-5-5-5-5-5-5-5-5-5-5-5-5--------|


VERSE:
|------------------------------------------------------------------|
|------------------------------------------------------------------|
|------------------------------------------------------------------|
|------------------------------------7--7-7-7-7--------------------|
|---7--7-7-7-7-7-7-7-7-7-7-7-7-7-7---5--5-5-5-5-7--7--7-7-7-7-7-7--|
|---5--5-5-5-5-5-5-5-5-5-5-5-5-5-5--------------5--5--5-5-5-5-5-5--|

|-------------------------------------------------------------------|
|-------------------------------------------------------------------|
|-------------------------------------------------------------------|
|----------------------------------7-7-7-7-7-7-7-7------------------|
|--7-7-7-7-7-7-7-7-7-7-7-7-7-7-7-7-5-5-5-5-5-5-5-5-7-7-7-7-7-7-7-7--|
|--5-5-5-5-5-5-5-5-5-5-5-5-5-5-5-5-----------------5-5-5-5-5-5-5-5--|


PRE-CHORUS:
|---------------------------------------------------|
|---------------------------------------------------|
|---------------------------------------------------|
|---7-7-7-7-7-7-7-7-----------------7-7-7-7-7-7-7-7-|
|---5-5-5-5-5-5-5-5-7-7-7-7-7-7-7-7-5-5-5-5-5-5-5-5-|
|-------------------5-5-5-5-5-5-5-5-----------------|


-------------------------------------------------|
-------------------------------------------------|
-------------------------------------------------|
-----------------9--9--9-9-9-9--9--9--9-9-9-9-9--|
-7-7-7-7-7-7-7-7-7--7--7-7-7-7--7--7--7-7-7-7-7--|
-5-5-5-5-5-5-5-5---------------------------------|


CHORUS:
|--------------------------------------------------------------------|
|--------------------------------------------------------------------|
|--------------------------------------------------------------------|
|-------------------5-5-5-5-5-5-5-5-----------------7-7-7-7-7-7-7-7--|
|---7-7-7-7-7-7-7-7-3-3-3-3-3-3-3-3-5-5-5-5-5-5-5-5-5-5-5-5-5-5-5-5--|
|---5-5-5-5-5-5-5-5-----------------3-3-3-3-3-3-3-3------------------|


|--------------------------------------------------------------------|
|--------------------------------------------------------------------|
|--------------------------------------------------------------------|
|-------------------5-5-5-5-5-5-5-5-----------------7-7-7-7-7-7-7-7--|
|---7-7-7-7-7-7-7-7-3-3-3-3-3-3-3-3-5-5-5-5-5-5-5-5-5-5-5-5-5-5-5-5--|
|---5-5-5-5-5-5-5-5-----------------3-3-3-3-3-3-3-3------------------|

POST-CHORUS:
|----------------------------------------|
|----------------------------------------|
|----------------------------------------|
|---------------------------------7-7-7--|
|--7--7-7-7-7-7-7-7-7-7-7-7-7-7-7-5-5-5--|
|--5--5-5-5-5-5-5-5-5-5-5-5-5-5-5--------|

|----------------------------------------|
|----------------------------------------|
|----------------------------------------|
|--------------------7----7--------------|
|--7--7-7-7-7-7-7----5-5--5-2------------|
|--5--5-5-5-5-5-5------3----0------------|


BRIDGE:
|-----------------------------------------------------|
|-----------------------------------------------------|
|-----------------------------------------------------|
|---------------4--4-4-4-4-4--------------------------|
|--4--4-4-4-4-4-2--2-2-2-2-2-2--2-2-2-2-2-7--7--6--6--|
|--2--2-2-2-2-2--------------0--0-0-0-0-0-5--5--4--4--|


|-----------------------------------------------------|
|-----------------------------------------------------|
|-----------------------------------------------------|
|---------------4--4-4-4-4-4--------------------------|
|--4--4-4-4-4-4-2--2-2-2-2-2-2--2-2-2-2-2-7--7--6--6--|
|--2--2-2-2-2-2--------------0--0-0-0-0-0-5--5--4--4--|


|------------------------------------------------------------------|
|------------------------------------------------------------------|
|------------------------------------------------------------------|
|-----------------4-4-4-4-4-4-4-4----------------------------------|
|--4--4-4-4-4-4-4-2-2-2-2-2-2-2-2-2-2-2-2-2-2-2-2-7-7-7-7-7-7-7-7--|
|--2--2-2-2-2-2-2-----------------0-0-0-0-0-0-0-0-5-5-5-5-5-5-5-5--|


|--------------------------------------------------|
|--------------------------------------------------|
|--------------------------------------------------|
|------------------4-4-4-4-4-4-4-4-7-7-7-7-7-7-7-7-|
|--4-4-4-4-4-4-4-4-2-2-2-2-2-2-2-2-5-5-5-5-5-5-5-5-|
|--2-2-2-2-2-2-2-2---------------------------------|


-------------------------------------|
-------------------------------------|
-------------------------------------|
-7-7-7-7-7-7-7-7-7-7-7-7-7-7-7-7-7\--|
-5-5-5-5-5-5-5-5-5-5-5-5-5-5-5-5-5\--|
-------------------------------------|


CHORUS:
|--------------------------------------------------------------------|
|--------------------------------------------------------------------|
|--------------------------------------------------------------------|
|-------------------5-5-5-5-5-5-5-5-----------------7-7-7-7-7-7-7-7--|
|---7-7-7-7-7-7-7-7-3-3-3-3-3-3-3-3-5-5-5-5-5-5-5-5-5-5-5-5-5-5-5-5--|
|---5-5-5-5-5-5-5-5-----------------3-3-3-3-3-3-3-3------------------|


|--------------------------------------------------------------------|
|--------------------------------------------------------------------|
|--------------------------------------------------------------------|
|-------------------5-5-5-5-5-5-5-5-----------------7-7--7--7--------|
|---7-7-7-7-7-7-7-7-3-3-3-3-3-3-3-3-5-5-5-5-5-5-5-5-5-5--5--5--------|
|---5-5-5-5-5-5-5-5-----------------3-3-3-3-3-3-3-3------------------|

|--------------------------------------------------------------------|
|--------------------------------------------------------------------|
|--------------------------------------------------------------------|
|-------------------5-5-5-5-5-5-5-5-----------------7-7-7-7-7-7-7-7--|
|---7-7-7-7-7-7-7-7-3-3-3-3-3-3-3-3-5-5-5-5-5-5-5-5-5-5-5-5-5-5-5-5--|
|---5-5-5-5-5-5-5-5-----------------3-3-3-3-3-3-3-3------------------|

|--------------------------------------------------------------------|
|--------------------------------------------------------------------|
|--------------------------------------------------------------------|
|-------------------5-5-5-5-5-5-5-5-----------------7-7-7-7-7-7-7-7--|
|---7-7-7-7-7-7-7-7-3-3-3-3-3-3-3-3-5-5-5-5-5-5-5-5-5-5-5-5-5-5-5-5--|
|---5-5-5-5-5-5-5-5-----------------3-3-3-3-3-3-3-3------------------|


ENDING:
|------------------------------------|
|------------------------------------|
|------------------------------------|
|-----------------------------7-7-7--|
|--7-7-7-7-7-7-7-7-7-7-7-7-7--5-5-5--|
|--5-5-5-5-5-5-5-5-5-5-5-5-5---------|

|------------------------------------|
|------------------------------------|
|------------------------------------|
|-----------------------------7-7-7--|
|--7-7-7-7-7-7-7-7-7-7-7-7-7--5-5-5--|
|--5-5-5-5-5-5-5-5-5-5-5-5-5---------|

|-------------------------------------|
|-------------------------------------|
|-------------------------------------|
|-------------------7----7------------|
|--7-7-7-7-7-7-7-7--5-5--5-2--4-4-4\--|
|--5-5-5-5-5-5-5-5----3----0--2-2-2\--|
Tap to rate this tab
# A B C D E F G H I J K L M N O P Q R S T U V W X Y Z