Song name
# A B C D E F G H I J K L M N O P Q R S T U V W X Y Z

Bowling For Soup - Bfff tab

Band: Bowling For Soup
Song: BFFF
Tabbed by:comet824
Tuning:standard

its my first tab...go easy on me if its wrong. haha. im sick so i decided to sit 
down and try to figure out BFFF :)

Intro
e|---------------------------------|
B|---------------------------------|
G|---------4--55-55--7-------------| (x4)
D|--55-55--4--55-55--7-------------|
A|--55-55--2--33-33--5-------------|
E|--33-33--------------------------|

Verse
e|---------------------------|
B|---------------------------|
G|---------5-----------------| (x8)
D|--5------5(x8)-------------|
A|--5(x8)--3-----------------|
E|--3------------------------|

Intro x2

Chorus   
e|------------------------|
B|------------------------|
G|--5--7------------------|
D|--5--7--5---------------| listen for timing
A|--3--5--5---------------|
E|--------3---------------|

Intro x2
Verse
Chorus

end of chorus
e|-------------------------------------|
B|-------------------------------------|
G|--5--7-------------------------------|
D|--5--7-------------------------------|
A|--3--5-------------------------------|
E|-------------------------------------|

intro x1

then:
e|-------------------------------------|
B|-------------------------------------|
G|---------4--55-55--3-----------------|
D|--55-55--4--55-55--3-----------------|
A|--55-55--2--33-33--1-----------------|
E|--33-33------------------------------|

Verse
Chorus

end
e|-------------------|
B|-------------------|
G|--3----------------|
D|--3----------------|
A|--1----------------|
E|-------------------|

Tap to rate this tab
# A B C D E F G H I J K L M N O P Q R S T U V W X Y Z