Song name
# A B C D E F G H I J K L M N O P Q R S T U V W X Y Z

Bowling For Soup - Shut Up And Smile tab

I didnt like the other tabs...heres mine its in drop D

(after piano intro)

e|------|
B|------|
G|------|
D|-11\0-|
A|-11\0-|
D|-11\0-|
INTRO
|-------------------------------------|
|-------------------------------------|
|-7777777---------4444444-------------| This is the main chord progression. 
|-7777777-4444444-4444444-2222222-4-0-|
|-5555555-4444444-2222222-2222222-4-0-|
|-0000000-4444444---------2222222-4-0-|
VERSE
|-------------------------------------|
|-------------------------------------|
|-7777777---------4444444-------------|
|-7777777-4444444-4444444-2-2-2-2-4-0-| 2x its pretty much the same here.
|-5555555-4444444-2222222-2-2-2-2-4-0-|
|---------4444444---------2-2-2-2-4-0-|
PRECHORUS
|--------------------|
|--------------------|
|--------------------| 
|-5-5-5555-7-7-7-7\0-| 
|-5-5-5555-7-7-7-7\0-|
|-5-5-5555-7-7-7-7\0-|
CHORUS
gtr 1
|-------------------------------------|
|-------------------------------------|
|-7-7-7777-7-7-7777-------------------|
|-7-7-7777-7-7-7777-5-5-5555-5-5-5555-|2x 
|-5-5-5555-5-5-5555-5-5-5555-5-5-5555-|
|-------------------5-5-5555-5-5-5555-|
gtr 2
|-------------------------------------|
|-------------------------------------|
|-------------------------------------|
|----------5-5/7-5-4-2----------------|2x
|-------------------------------------|
|-------------------------------------|
THEN
|-------------------------------------|
|-------------------------------------|
|-------------------------------------|
|-2-2-2222-2-2-2222-5-5-5555-5-5-5555-|2x
|-2-2-2222-2-2-2222-5-5-5555-5-5-5555-|
|-2-2-2222-2-2-2222-5-5-5555-5-5-5555-|

|---------|
|---------|
|---------|
|-7-7-7-7-|
|-7-7-7-7-|
|-7-7-7-7-|

BACK TO INTRO
THEN VERSE
THEN PRE-CHORUS/CHORUS
BREAK
|-----------------------------------------|
|-----------------------------------------|
|--77-7b88r7-7-7b8r7-X3-7-77b88r7-7-8b9-7-|X2 really not as difficult as it
|-----------------------------------------|looks. add some WAH to the bends
|-----------------------------------------|
|-----------------------------------------|
BRIDGE
|-------------------------------------|
|-7-7-7-7-7-7-7-7-4-4-4-4-4-4-4-4-----|
|-7-7-7-7-7-7-7-7-4-4-4-4-4-4-4-4-----|
|-5-5-5-5-5-5-5-5-2-2-2-2-2-2-2-2-----| \
|-------------------------------------|  \
|-------------------------------------|   \

|-------------------------------------|   / X2
|-------------------------------------|  /
|-------------------------------------| /
|-5-5-5-5-5-5-5-5-7-7-7-7-7-7-7-7-----|
|-5-5-5-5-5-5-5-5-7-7-7-7-7-7-7-7-----|
|-5-5-5-5-5-5-5-5-7-7-7-7-7-7-7-7-----|

TO CHORUS
INTRO X1
OUTRO
|-------------------------------------------|
|-------------------------------------------|
|-7-7-7777----------------------------------|
|-7-7-7777-4-4-4444-------4-4-4444-7-7-7777-|repeat and fade out to "All we 
|-5-5-5555-4-4-4444-------2-2-2222-7-7-7777-|need is love and beer"
|----------4-4-4444----------------7-7-7777-|
3rd "Love and Beer"
|-------------------------------------|
|-------------------------------------|
|-------------------------------------|
|-------------------------------------|
|----7-5-4-2--------------------------|
|-------------------------------------|



Tap to rate this tab
 
# A B C D E F G H I J K L M N O P Q R S T U V W X Y Z