Song name
# A B C D E F G H I J K L M N O P Q R S T U V W X Y Z

Bowling For Soup - Girl All The Bad Guys Want tab

Artist   :Bowling For Soup

Song     :Girl all the bad guys want

Tuning   :Drop D

Tabbed by:Ghosttownrocker

This is a pretty easy song to play and this is my first tab hope ya'll enjoy and rate it good 
because its the best tab of this song out there. Thanks

For any tips or question email me- gdogs.gdogs@hotmail.com

*    = palm mute
r    = release,don't let no ring
hold = hold the note
|    = play notes at the same time the first guitarist and second guitarist


Intro:

First guitar
e-----------------------------------|
B-----------------------------------|
G-----------------------------------| play 1 time
D-----------------------------------|
A----5-4-0----5-4-0---5-4-0-2-0---0-|
D-0---------4-------5-----------5---|

First guitarist                     __   
e-----------------------------------  \              
B-----------------------------------   \                  
G-----------------------------------    \                    
D-----------------------------------     \               
A----5-4-0----5-4-0---5-4-0-2-0---0-      \                   
D-0---------4-------5-----------5---       \            
  |         |       |       |               \ Play together twice                
Second guitarist                            /                           
e-----------------------------------       /                   
B-----------------------------------      /               
G-----------------------------------     /            
D-0---------4-------5-------7-------    /                
A-0-x4------4-x4----5-x4----7-x4----   /             
D-0---------4-------5-------7-------__/                 



Verse:

 :10
e-----------------------|
B-----------------------|
G-----------------------|
D-0-----4-----5-----7---|
A-0-x8--4-x4--5-x2--7x2-|
D-0-----4-----5-----7---|
  *     *     *     *
 
 :15
e-----------------------|
B-----------------------|
G-----------------------|
D-0-----4-----5-----7-9-|
A-0-x8--4-x4--5-x2--7-9-|
D-0-----4-----5-----7-9-|
  *     *     *     
 
  :18
e-----------------------|
B-----------------------|
G-----------------------|
D-0-----4-----5-----7---|
A-0-x8--4-x4--5-x2--7x2-|
D-0-----4-----5-----7---|
  *     *     *     *
 
  :22
e-----------------------|
B-----------------------|
G-----------------------|
D-0-----4-----5-----7---|
A-0-x8--4-x4--5-x2--7---|
D-0-----4-----5-----7---|
  *     *     *     
 
  :25
e-------------------------------------|
A-------------------------------------|
D-------------------------------------|
G-9-----7-----5-----0------2-----5----|
A-9-x8--7-x8--5-x8--0-x8---2-x8--5-x8-|
D-9-----7-----5-----0------2-----5----|


  :36
e--------------------|
B--------------------|
G--------------------|
D-0-0--2-2--4-4--5-5-|
A-0-0--2-2--4-4--5-5-|
D-0-0--2-2--4-4--5-5-|
    r    r    r    r         


  :44
e------------------------------------|
B------------------------------------|
G------------------------------------|
D-2-----4-----5-----4-----5-----7----|
A-2-x8--4-x8--5-x8--4-x8--5-x8--7-x8-|
D-2-----4-----5-----4-----5-----7----|
  *     *     *     *     *     

Chorus:

  :54
First guitarist                     __   
e-----------------------------------  \              
B-----------------------------------   \                  
G-----------------------------------    \                    
D-----------------------------------     \               
A----5-4-0----5-4-0---5-4-0-2-0---0-      \                   
D-0---------4-------5-----------5---       \            
  |         |       |       |               \ Play together twice                
Second guitarist                            /                           
e-----------------------------------       /                   
B-----------------------------------      /               
G-----------------------------------     /            
D-0---------4-------5-------7-------    /                
A-0-x4------4-x4----5-x4----7-x4----   /             
D-0---------4-------5-------7-------__/     


  1:02
e-----------------------|
B-----------------------|
G-----------------------|
D-0-----4-----5-----7---|
A-0-x8--4-x4--5-x2--7x2-|
D-0-----4-----5-----7---|
  *     *     *     *
 
 1:06
e-----------------------|
B-----------------------|
G-----------------------|
D-0-----4-----5-----7-9-|
A-0-x8--4-x4--5-x2--7-9-|
D-0-----4-----5-----7-9-|
  *     *     *     
 
  1:09
e-----------------------|
B-----------------------|
G-----------------------|
D-0-----4-----5-----7---|
A-0-x8--4-x4--5-x2--7x2-|
D-0-----4-----5-----7---|
  *     *     *     *
 
  1:13
e-----------------------|
B-----------------------|
G-----------------------|
D-0-----4-----5-----7---|
A-0-x8--4-x4--5-x2--7---|
D-0-----4-----5-----7---|
  *     *     *     
 
  1:17
e-------------------------------------|
A-------------------------------------|
D-------------------------------------|
G-9-----7-----5-----0------2-----5----|
A-9-x8--7-x8--5-x8--0-x8---2-x8--5-x8-|
D-9-----7-----5-----0------2-----5----|


  1:28
e--------------------|
B--------------------|
G--------------------|
D-0-0--2-2--4-4--5-5-|
A-0-0--2-2--4-4--5-5-|
D-0-0--2-2--4-4--5-5-|
    r    r    r    r  


  1:35
e------------------------|
B------------------------|
G------------------------|
D-2-----4-----5-----7----|
A-2-x8--4-x8--5-x8--7-x8-|
D-2-----4-----5-----7----|
  *     *     *     *    

  1:42
e------------------------------------|
B------------------------------------|
G------------------------------------|
D-2-----4-----5-----4-----5-----7----|
A-2-x8--4-x8--5-x8--4-x8--5-x8--7-x8-|
D-2-----4-----5-----4-----5-----7----|
  *     *     *     *     *     

  1:53
First guitarist                     __   
e-----------------------------------  \              
B-----------------------------------   \                  
G-----------------------------------    \                    
D-----------------------------------     \               
A----5-4-0----5-4-0---5-4-0-2-0---0-      \                   
D-0---------4-------5-----------5---       \            
  |         |       |       |               \ Play together 4x                
Second guitarist                            /                           
e-----------------------------------       /                   
B-----------------------------------      /               
G-----------------------------------     /            
D-0---------4-------5-------7-------    /                
A-0-x4------4-x4----5-x4----7-x4----   /             
D-0---------4-------5-------7-------__/   
    

  2:08                                                                     
First Guitarist
e--------------------------------------------------------------------------  \
B--------------------------------------------------------------------------   \
G--------------------------------------------------------------------------    |
D-9-9-9-9--7-7-7-7--5-5-5-5-5-5-5--7--9-9-9-9--7-7-7-7--5-----------7------    |
A-9-9-9-9--7-7-7-7--5-5-5-5-5-5-5--7--9-9-9-9--7-7-7-7--5-HOLD------7-HOLD-    |
D-9-9-9-9--7-7-7-7--5-5-5-5-5-5-5--7--9-9-9-9--7-7-7-7--5-----------7------    |
  r r r r  r r r r  r r r r r r r  r  r r r r  r r r r                         | Play together
Second Guitarist                |  |  |                                        |
e--------------------------------------------------------------------------    |
B--------------------------------------------------------------------------    |
G--------------------------------------------------------------------------    |
D--------------------------------------------------------------------------    |
A-------------------------------5--4--2--------------------/7-5-4-2-0------   /
D--------------------------------------------------------------------------__/



  2:26 CLEAN
e------------------------------|
B------------------------------|
G------------------------------|
D-0------2-------4------5------|  
A-0-HOLD-2-HOLD--4-HOLD-5-HOLD-|
D-0------2-------4------5------|


  2:33 
First guitarist                __
e------------------------------  \
B------------------------------   \
G------------------------------    \ 
D-0------2-------4------5------     \
A-0-HOLD-2-HOLD--4-HOLD-5-HOLD-      \ 
D-0------2-------4------5------       \
  |      |       |      |              \
Secone guitarist                       /  Play together
e------------------------------       /
B------------------------------      /
G------------------------------     / 
D------------------------------    /
A------------------------------   /
D-0----0-2-----2-4----4-5------  /
                               _/


  2:41
e------------------------------------|
B------------------------------------|
G------------------------------------|
D-2-----4-----5-----4-----5-----7----|
A-2-x8--4-x8--5-x8--4-x8--5-x8--7-x8-|
D-2-----4-----5-----4-----5-----7----|
  *     *     *     *     *     

  2:52
First guitarist                     __   
e-----------------------------------  \              
B-----------------------------------   \                  
G-----------------------------------    \                    
D-----------------------------------     \               
A----5-4-0----5-4-0---5-4-0-2-0---0-      \                   
D-0---------4-------5-----------5---       \            
  |         |       |       |               \ Play together 7x                
Second guitarist                            /                           
e-----------------------------------       /                   
B-----------------------------------      /               
G-----------------------------------     /            
D-0---------4-------5-------7-------    /                
A-0-x4------4-x4----5-x4----7-x4----   /             
D-0---------4-------5-------7-------__/   


  3:18
First guitarist                         __   
e---------------------------------------  \              
B---------------------------------------   \                  
G---------------------------------------    \                    
D---------------------------------------     \               
A----5-4-0----5-4-0---5-4-0-2-0---0-----      \                   
D-0---------4-------5-----------5-------       \            
  |         |       |       |                   \ Play together 1x                
Second guitarist                                /                           
e---------------------------------------       /                   
B---------------------------------------      /               
G---------------------------------------     /            
D-0---------4-------5-------7----12-----    /                
A-0-x4------4-x4----5-x4----7-x4-12-X3--   /             
D-0---------4-------5-------7----12-----__/   



For any tips or question email me- gdogs.gdogs@hotmail.com
Tap to rate this tab
# A B C D E F G H I J K L M N O P Q R S T U V W X Y Z