Song name
# A B C D E F G H I J K L M N O P Q R S T U V W X Y Z

Bowling For Soup - Self Centered tab

-----------------------------------------------------------------
Self-Centered - Bowling For Soup
-----------------------------------------------------------------
Tabbed by: Bair
Email: bair_morritt@hotmail.com

Tuning: Standard


Main Riff:
e|--2---0-2------2---0-2------2---0-2-3333-2---0-2----|
B|----3-----3333---3-----3333---3------------3-----3--|
G|----------------------------------------------------|  X2
D|----------------------------------------------------|
A|----------------------------------------------------|
E|----------------------------------------------------|

Intro G2:
e|-------------------------------------------------|
B|-------------------------------------------------|
G|--77777777---------------------------------------|
D|--77777777--77777777--22222222--5555-7777--(X2)--|
A|--55555555--77777777--22222222--5555-7777--------|
E|------------55555555--00000000--3333-5555--------|

Verse:
e|-----------------------------------|
B|-----------------------------------|
G|--77X7--------99X9-----------------|
D|--77X7--77X7--99X9--55X7--(X2)-----|
A|--55X5--77X7--77X7--55X7-----------|
E|--------55X5--------33X5-----------|
"I got it stuck in a bind, I dont...."

Pre-Chorus:
e|------------------------------------------------------------|
B|------------------------------------------------------------|
G|----------------------777777X777X77X77----------------------|
D|--55555555--77777777--777777X777X77X77--55555555--77777777--|
A|--55555555--77777777--555555X555X55X55--55555555--77777777--|
E|--33333333--55555555--------------------33333333--55555555--|
"I think I'm taking a vacation now, (I'm on holiday)...."

e|---------------------------|
B|---------------------------|
G|--7--6--4--2---------------|
D|--7--6--4--2--5555--777----|
A|--5--4--2--0--5555--777----|
E|--------------3333--555----|
"Until I've thrown it all away...."

Chorus:
e|-----------------------------------------------------------|
B|-----------------------------------------------------------|
G|--77---------------77---------------7--6--4--2-------------|
D|--77--77--55555-7--77--77--55555-7--7--6--4--2--5555--777--|
A|--55--77--55555-7--55--77--55555-7--5--4--2--0--5555--777--|
E|------55--33333-5------55--33333-5--------------3333--555--|
"I'm gonna feel sorry for myself, I want to blame it on...."

-Then Main Riff(X1) + Intro
-Then Verse
-Then Pre-Chorus
-Then Chorus (X2)

Bridge:
e|----------------------------------------------|
B|----------------------------------------------|
G|--7-------------------7-----------------------|
D|--7--7--2--5-7--(X3)--7--7--33333333--5555-5--|
A|--5--7--2--5-7--------5--7--33333333--5555-5--|
E|-----5--0--3-5-----------5--11111111--3333-3--|
"My leg fell asleep cause you laid on it...."

-Then Chorus

Outro:
e|-------------------------------------|
B|-------------------------------------|
G|------------------------------7------|
D|--55555555--77777777----5--7--7------|
A|--55555555--77777777----5--7--5------|
E|--33333333--55555555----3--5---------|
"Feel soorrrry for me....Yah, Yah, Yah"

------------------------------------------------------------------------
Lyrics:

I got it stuck in a bind
I don't even know why
It sucks to even try
But I won't try anymore

She took the afternoon train
To find a different plane
But life down the drain
Better than being ignored

I think I'm taking a vacation now
I'm on holiday and maybe I won't rest
Until I've thrown it all away
Yeah I've got it down

I'm gonna feel sorry for myself
I want to blame it on everyone else
I want to be self centered
And make everybody feel sorry for me

She sent a postcard again 
She said she had a new friend
I hope that by the end
He throws her heart to the floor
She says he's really ok
I really hope that he's gay
It's not a nice thing to say
But I don't care anymore

My leg fell asleep
Cause you laid on it
There's no reason to dwell on it 
It's just not worth it
Remember a year ago
When we played in the show
Now get outta my head
Tap to rate this tab
# A B C D E F G H I J K L M N O P Q R S T U V W X Y Z