Song name
# A B C D E F G H I J K L M N O P Q R S T U V W X Y Z

Bowling For Soup - Belgium tab

Artist: Bowling For Soup
Song: Belgium
Album: Let's do it for Johnny!
Tabbed by: mgian2
Tuning: Standard (E,B,G,D,A,E)

Intro:
E|----------------------------------|
B|----------------------------------|
G|----------------------------------|
D|--9---4---5---7-5-7--9-9---5---4--|
A|----------------------------------|
E|----------------------------------|

or you can try this- its wrong but i think it sounds better:

E|-------------------------------------------|
B|-------------------------------------------|
G|-------------------------------------------|
D|--9---4---5---5-7-5-7-9-9---5-7-9-7-5-7-4--|
A|-------------------------------------------|
E|-------------------------------------------|

Verse:
E|--------------------------|
B|--------------------------|
G|-------6666--4444--88-66--|
D|-4444--6666--4444--88-66--|
A|-4444--4444--2222--66-44--|
E|-2222---------------------|

Chorus:
E|-----------------------|
B|-----------------------|
G|------6666-8888-44-66--|
D|-4444-6666-8888-44-66--|
A|-4444-6666-8888-44-66--|
E|-4444------------------|
Tap to rate this tab
# A B C D E F G H I J K L M N O P Q R S T U V W X Y Z