Song name
# A B C D E F G H I J K L M N O P Q R S T U V W X Y Z

Bowling For Soup - Belgium Acoustic tab

Hey guys, this is my first tab, and i know this aint perfect, but i think 
it's close enough, and sounds good to me, but lemme know what you think,
please be nice lol 

It's only the rhythm 'cause i can't figure out the lead part yet

Bowling For Soup - Belgium (Acoustic)
Standard Tuning eBGDAE

Intro 

e:-----------------------------------------------|
B:-----------------------------------------------|
G:-----------7-7-7-7-7-7---5-5-5--9-9-9--7-7-7-7-|
D:-5--5-5-5--7-7-7-7-7-7---5-5-5--9-9-9--7-7-7-7-|
A:-5--5-5-5--5-5-5-5-5-5---3-3-3--7-7-7--5-5-5-5-|x2
E:-3--3-3-3--------------------------------------|

Verse 1

e:-----------------------------------------------|
B:-----------------------------------------------|
G:-----------7-7-7-7-7-7---5-5-5--9-9-9--7-7-7-7-|
D:-5--5-5-5--7-7-7-7-7-7---5-5-5--9-9-9--7-7-7-7-|
A:-5--5-5-5--5-5-5-5-5-5---3-3-3--7-7-7--5-5-5-5-|x2
E:-3--3-3-3--------------------------------------|

Pre Chorus

e:-------------------------------------------------------------|
B:-------------------------------------------------------------|
G:-----------------5-5-5-5-5-5-5-5-----------------7-7-7-7-7-7-|
D:-7-7-7-7-7-7-7-7-5-5-5-5-5-5-5-5-5-5-5-5-5-5-5-5-7-7-7-7-7-7-|
A:-7-7-7-7-7-7-7-7-3-3-3-3-3-3-3-3-5-5-5-5-5-5-5-5-5-5-5-5-5-5-|x2
E:-5-5-5-5-5-5-5-5-----------------3-3-3-3-3-3-3-3-------------|

Chorus 1

e:-----------------------------------------------------------------|
B:-----------------------------------------------------------------|
G:----------------7---7-7-7-7--9---9-9-9-9-9-9-9-9-5-5-5-5-7-7-7-7-|
D:-5---5-5-5-5-5--7---7-7-7-7--9---9-9-9-9-9-9-9-9-5-5-5-5-7-7-7-7-|
A:-5---5-5-5-5-5--5---5-5-5-5--7---7-7-7-7-7-7-7-7-3-3-3-3-5-5-5-5-|x4
E:-3---3-3-3-3-3---------------------------------------------------|

Post Chorus

e:-----------------------------------------------|
B:-----------------------------------------------|
G:-----------7-7-7-7-7-7---5-5-5--9-9-9--7-7-7-7-|
D:-5--5-5-5--7-7-7-7-7-7---5-5-5--9-9-9--7-7-7-7-|
A:-5--5-5-5--5-5-5-5-5-5---3-3-3--7-7-7--5-5-5-5-|x2
E:-3--3-3-3--------------------------------------|

Verse 2

e:-----------------------------------------------|
B:-----------------------------------------------|
G:-----------7-7-7-7-7-7---5-5-5--9-9-9--7-7-7-7-|
D:-5--5-5-5--7-7-7-7-7-7---5-5-5--9-9-9--7-7-7-7-|
A:-5--5-5-5--5-5-5-5-5-5---3-3-3--7-7-7--5-5-5-5-|x4
E:-3--3-3-3--------------------------------------|

Pre Chorus

e:-------------------------------------------------------------|
B:-------------------------------------------------------------|
G:-----------------5-5-5-5-5-5-5-5-----------------7-7-7-7-7-7-|
D:-7-7-7-7-7-7-7-7-5-5-5-5-5-5-5-5-5-5-5-5-5-5-5-5-7-7-7-7-7-7-|
A:-7-7-7-7-7-7-7-7-3-3-3-3-3-3-3-3-5-5-5-5-5-5-5-5-5-5-5-5-5-5-|x2
E:-5-5-5-5-5-5-5-5-----------------3-3-3-3-3-3-3-3-------------|


Chorus 2

e:-----------------------------------------------------------------|
B:-----------------------------------------------------------------|
G:----------------7---7-7-7-7--9---9-9-9-9-9-9-9-9-5-5-5-5-7-7-7-7-|
D:-5---5-5-5-5-5--7---7-7-7-7--9---9-9-9-9-9-9-9-9-5-5-5-5-7-7-7-7-|
A:-5---5-5-5-5-5--5---5-5-5-5--7---7-7-7-7-7-7-7-7-3-3-3-3-5-5-5-5-|x3
E:-3---3-3-3-3-3---------------------------------------------------|

e:-----------------------------------------------------------------|
B:-----------------------------------------------------------------|
G:----------------7---7-7-7-7--9---9-9-9-9-9-9-9-9-5~--------------|
D:-5---5-5-5-5-5--7---7-7-7-7--9---9-9-9-9-9-9-9-9-5~--------------|
A:-5---5-5-5-5-5--5---5-5-5-5--7---7-7-7-7-7-7-7-7-3~--------------|
E:-3---3-3-3-3-3---------------------------------------------------|

Solo 

e:-----------------------------------------------|
B:-----------------------------------------------|
G:-----------7-7-7-7-7-7---5-5-5--9-9-9--7-7-7-7-|
D:-5--5-5-5--7-7-7-7-7-7---5-5-5--9-9-9--7-7-7-7-|
A:-5--5-5-5--5-5-5-5-5-5---3-3-3--7-7-7--5-5-5-5-|
E:-3--3-3-3--------------------------------------|

e:-----------------------------------------------|
B:-----------------------------------------------|
G:-----------7~------------5~-----9-9-9--7-7-7-7-|
D:-5--5-5-5--7~------------5~-----9-9-9--7-7-7-7-|
A:-5--5-5-5--5~------------3~-----7-7-7--5-5-5-5-|
E:-3--3-3-3--------------------------------------|

Bridge

e:-----------------------------------------------|
B:-----------------------------------------------|
G:-----------7~------------5~-----9~-----7~------|
D:-5~--------7~------------5~-----9~-----7~------|
A:-5~--------5~------------3~-----7~-----5~------|
E:-3~--------------------------------------------|

e:-----------------------------------------------|
B:-----------------------------------------------|
G:-----------7~------------5~-----9-9-9--7-7-7-7-|
D:-5--5-5-5--7~------------5~-----9-9-9--7-7-7-7-|
A:-5--5-5-5--5~------------3~-----7-7-7--5-5-5-5-|
E:-3--3-3-3--------------------------------------|

e:-----------------------------------------------------------------|
B:-----------------------------------------------------------------|
G:----------------7---7-7-7-7--9---9-9-9-9-9-9-9-9-5-5-5-5-7-7-7-7-|
D:-5---5-5-5-5-5--7---7-7-7-7--9---9-9-9-9-9-9-9-9-5-5-5-5-7-7-7-7-|
A:-5---5-5-5-5-5--5---5-5-5-5--7---7-7-7-7-7-7-7-7-3-3-3-3-5-5-5-5-|x3 (Softly)
E:-3---3-3-3-3-3---------------------------------------------------|

e:-----------------------------------------------------------------|
B:-----------------------------------------------------------------|
G:----------------7---7-7-7-7--9~----------------------------------|
D:-5---5-5-5-5-5--7---7-7-7-7--9~----------------------------------|
A:-5---5-5-5-5-5--5---5-5-5-5--7~----------------------------------|
E:-3---3-3-3-3-3---------------------------------------------------|

Outro

e:------------------------------------------------|     |----------|
B:------------------------------------------------|     |----------|
G:------------7-7-7-7-7-7---5-5-5--9-9-9--7-7-7-7-|     |----------|
D:-/5--5-5-5--7-7-7-7-7-7---5-5-5--9-9-9--7-7-7-7-|     |-5--5-5-5-|
A:-/5--5-5-5--5-5-5-5-5-5---3-3-3--7-7-7--5-5-5-5-|x4   |-5--5-5-5-|
E:-/3--3-3-3--------------------------------------|     |-3--3-3-3-|



Lyrics

Lately i feel so small 
Or maybe it's just that my bed has grown 
I never noticed it before but you were there 
So how was i to know 

That this single bed 
Was always meant for two 
Not just anyone 
It was meant for me and you

And now you're halfway round the world 
And im just a day behind 
Nothing seems to fill the hole 
That i have since you left my side 
You'll always be my little girl 
Though i can't hold you tonight 
And now you're halfway round the world 
And i'm just a day behind

I wake up in the night 
I turn around and find that you're not there 
I just like to watch you sleep and lay by you 
I love to feel you near 
I think i'm going crazy 
Everyday confusion starts to grow 
I never noticed it before 
But you were there so how was i to know

That this single bed 
Was always meant for two 
Not just anyone 
It was meant for me and you

And now you're halfway round the world 
And i'm just a day behind 
Nothing seems to fill the hole 
That i have since you left my side 
You'll always be my little girl 
Though i can't hold you tonight 
And now you're halfway round the world 
And i'm just a day behind

Lately i feel so small 
Or maybe its just that my bed has grown 
I never noticed it before but you were there 
So how was i to know 

And now you're halfway round the world 
And im just a day behind 
Nothin seems to fill the hole 
That i have since you left my side 
You'll always be my little girl 
Though i can't hold you tonight 
And now you're halfway round the world 
And i'm just a day behind

Just a day behind
Just a day behind
Just a day behind
Just a day behind
Tap to rate this tab
 
# A B C D E F G H I J K L M N O P Q R S T U V W X Y Z