Song name
# A B C D E F G H I J K L M N O P Q R S T U V W X Y Z

Bowling For Soup - Hooray For Beer tab

bowling for soup
hooray foor beer
tab by dan noble
intro:
--------------------------------|-----2-4-2-0-|
-7-7-7-7-9---7-6-6-6-6-7-6-4-4-2|-0-0-4-------|
--------------------------------|-2-2-4-------|
-9-9-9-9-11--9-8-8-8-8-9-8-6-6-4|-2-2---------|
--------------------------------|-------------|
--------------------------------|-------------|

verse:
-----------------------------------------------------------------|
-7-7-7-7-7-7-7-7-6-6-6-6-6-6-6-6-4-4-4-4-4-4-4-4-0-0-0-0-0-0-0-0-|
-9-9-9-9-9-9-9-9-9-9-9-9-9-9-9-9-6-6-6-6-6-6-6-6-2-2-2-2-2-2-2-2-|
-9-9-9-9-9-9-9-9-9-9-9-9-9-9-9-9-6-6-6-6-6-6-6-6-2-2-2-2-2-2-2-2-|
-----------------------------------------------------------------|
-----------------------------------------------------------------|
Tap to rate this tab
 
# A B C D E F G H I J K L M N O P Q R S T U V W X Y Z