Song name
# A B C D E F G H I J K L M N O P Q R S T U V W X Y Z

Bowling For Soup - Pictures He Drew tab

I couldnt find any good tabs for this song so i decided to tab it out myself. Its a 
good song by a great band.

Intro: (0:00 - 0:15)

E-------------------------------------------------------------------|
B-------------------------------------------------------------------|
G----99999999-------------------------------------------------------|
D----99999999--99999999---------------------------------------------|
A----77777777--99999999--101010101010--121212121212-----------------|
E--------------77777777--9-9-9-9-9-9---101010101010-----------------|

E---------------------------------------------------------------------|
B---------------------------------------------------------------------|
G----99999999---------------------------------------------------------|
D----99999999--99999999-----------------------------------------------|
A----77777777--99999999--101010101010--121212121212--14---------------|
E--------------77777777--9-9-9-9-9-9---101010101010--12---------------|


Verse: (0:29 - 0:37)
E-------------------------------------------------------------------|
B-------------------------------------------------------------------|
G----99999999-------------------------------------------------------|
D----99999999--99999999---------------------------------------------|
A----77777777--99999999--101010101010--121212121212--14-------------|
E--------------77777777--9-9-9-9-9-9---101010101010--12-------------|

(0:37 - 0:50)
E----------------------------|
B----------------------------|
G-----9----------------------|(This part is played with EQ, but
D-----9---------9---------7--|it still sounds good without it)
A-----7---------9---------7--|
E---------------7---------5--|

E----------------------------|
B----------------------------|
G-----9----------------------|(This part is played with EQ, but
D-----9---------9---------7--|it still sounds good without it)
A-----7---------9---------7--|
E---------------7---------5--|

Chorus: (0:50 - 1:20)

E---------------------------------------------------------------------------|
B---------------------------------------------------------------------------|mini lead fill*
G-------------99999999-------------------------------------------9-11p9-----|
D-------------99999999--99999999--77777777-------------------9-11--------9--|
A-------------77777777--99999999--77777777--1212121212121212----------------|
E--pic slide------------77777777--55555555--1010101010101010----------------|

E--------------------------------------------------------------------|
B--------------------------------------------------------------------|mini lead fill*
G----99999999----------------------------------------------9-11p9----|
D----99999999--99999999-------------------------------9-11--------9--|
A----77777777--99999999--101010101010--121212121212------------------|
E--------------77777777--9-9-9-9-9-9---101010101010------------------|

E--------------------------------------------------------------------|
B--------------------------------------------------------------------|mini lead fill*
G----99999999----------------------------------------------9-11p9----|
D----99999999--99999999--77777777---------------------9-11--------9--|
A----77777777--99999999--77777777--1212121212121212------------------|
E--------------77777777--55555555--1010101010101010------------------|

E-------------------------------------------------------------------|
B-------------------------------------------------------------------|
G----99999999-------------------------------------------------------|
D----99999999--99999999---------------------------------------------|
A----77777777--99999999--101010101010--121212121212--14-------------|
E--------------77777777--9-9-9-9-9-9---101010101010--12-------------|

Verse: (1:20 - 1:33)

E----------------------------|
B----------------------------|
G-----9----------------------|(This part is played with EQ, but
D-----9---------9---------7--|it still sounds good without it)
A-----7---------9---------7--|
E---------------7---------5--|

Chorus: (1:33 - 2:02)

E---------------------------------------------------------------------------|
B---------------------------------------------------------------------------|mini lead fill*
G-------------99999999-------------------------------------------9-11p9-----|
D-------------99999999--99999999--77777777-------------------9-11--------9--|
A-------------77777777--99999999--77777777--1212121212121212----------------|
E--pic slide------------77777777--55555555--1010101010101010----------------|

E----------------------------------------------------------------------|
B----------------------------------------------------------------------|mini lead fill*
G----99999999----------------------------------------------9-11p9------|
D----99999999--99999999-------------------------------9-11--------9----|
A----77777777--99999999--101010101010--121212121212--------------------|
E--------------77777777--9-9-9-9-9-9---101010101010--------------------|

E--------------------------------------------------------------------|
B--------------------------------------------------------------------|mini lead fill*
G----99999999-------------------------------------------9-11p9-------|
D----99999999--99999999--77777777-------------------9-11--------9----|
A----77777777--99999999--77777777--1212121212121212------------------|
E--------------77777777--55555555--1010101010101010------------------|

E-------------------------------------------------------------------|
B-------------------------------------------------------------------|
G----99999999-------------------------------------------------------|
D----99999999--99999999---------------------------------------------|
A----77777777--99999999--111111111111--10101010101010---------------|
E--------------77777777--9-9-9-9-9-9---8-8-8-8-8-8-8----------------|

Bridge:(2:03 - 2:24)

E-------------------------------------------------------------------|
B-------------------------------------------------------------------|
G-------------------------------------------------------------------|
D-------------------------------------------------------------------|
A----77777777--99999999--2222222222222222---------------------------|
E----55555555--77777777--0000000000000000---------------------------|

E-------------------------------------------------------------------|
B-------------------------------------------------------------------|
G-------------------------------------------------------------------|
D-------------------------------------------------------------------|
A----77777777--99999999--2222222222222222---------------------------|
E----55555555--77777777--0000000000000000---------------------------|

E-------------------------------------------------------------------|
B-------------------------------------------------------------------|
G-------------------------------------------------------------------|
D-------------------------------------------------------------------|
A----77777777--99999999--1010101010101010-1212121212121212----------|
E----55555555--77777777--8-8-8-8-8-8-8-8--1010101010101010----------|

Solo: (2:24 - 2:39)
                          PM       PM      PM      PM      PM      PM
E----------------------------------------------------------------------------|
B----------------------------------------------------------------------------|
G----------------------------------------------------------------------------|
D--15~------17~------19------17------15------17------19------17-----15-17-15-|
A------15~------15~------15------15------15------15------15------15----------|
E----------------------------------------------------------------------------|

                          PM       PM      PM      PM      PM      PM
E----------------------------------------------------------------------------|
B----------------------------------------------------------------------------|
G----------------------------------------------------------------------------|
D--15~------17~------19------17------15------17------19------17-----15-17-15-|
A------15~------15~------15------15------15------15------15------15----------|
E----------------------------------------------------------------------------|

Rythm behind solo:

E-------------------------------------------------------------------|
B-------------------------------------------------------------------|
G----99999999-------------------------------------------------------|
D----99999999--99999999--77777777-----------------------------------|
A----77777777--99999999--77777777--1212121212121212-----------------|
E--------------77777777--55555555--1010101010101010-----------------|

E-------------------------------------------------------------------|
B-------------------------------------------------------------------|
G----99999999-------------------------------------------------------|
D----99999999--99999999---------------------------------------------|
A----77777777--99999999--1111111111111111--1212121212121212---------|
E--------------77777777--9-9-9-9-9-9-9-9---1010101010101010---------|


Chorus: (2:39 -

E---------------------------------------------------------------------------|
B---------------------------------------------------------------------------|mini lead fill*
G-------------99999999-------------------------------------------9-11p9-----|
D-------------99999999--99999999--77777777-------------------9-11--------9--|
A-------------77777777--99999999--77777777--1212121212121212----------------|
E--pic slide------------77777777--55555555--1010101010101010----------------|

E----------------------------------------------------------------------|
B----------------------------------------------------------------------|mini lead fill*
G----99999999----------------------------------------------9-11p9------|
D----99999999--99999999-------------------------------9-11--------9----|
A----77777777--99999999--101010101010--121212121212--------------------|
E--------------77777777--9-9-9-9-9-9---101010101010--------------------|

E--------------------------------------------------------------------|
B--------------------------------------------------------------------|mini lead fill*
G----99999999-------------------------------------------9-11p9-------|
D----99999999--99999999--77777777-------------------9-11--------9----|
A----77777777--99999999--77777777--1212121212121212------------------|
E--------------77777777--55555555--1010101010101010------------------|

E-------------------------------------------------------------------|
B-------------------------------------------------------------------|
G----99999999-------------------------------------------------------|
D----99999999--99999999---------------------------------------------|
A----77777777--99999999--111111111111--1212121212121212-------------|
E--------------77777777--9-9-9-9-9-9---1010101010101010-------------|

E-------------------------------------------------------------------|
B-------------------------------------------------------------------|
G----99999999-------------------------------------------------------|
D----99999999--99999999---------------------------------------------|
A----77777777--99999999--111111111111--12---------------------------|
E--------------77777777--9-9-9-9-9-9---10---------------------------|


The *Mini Lead Fill* things are played during the last bar of chords, listen out and you 
hear it, just incase anyone needed help or anything (Y)

Any questions or if you think anythings wrong with it just email me.
Tap to rate this tab
 
# A B C D E F G H I J K L M N O P Q R S T U V W X Y Z