Song name
# A B C D E F G H I J K L M N O P Q R S T U V W X Y Z

Bowling For Soup - 1985 tab

Key:
X= mute
/= slide up
\= slide down
>= pick slide (pick scrape)
B= bend
P= pull-off
.= palm mute

Intro:
e|-------------------------------------------------------------------------|
B|-------------------------------------------------------------------------|
G|-------------------------------------------------------------------------|
D|-------------------------------------------------------------------------|
A|-2/4-6--2/4-6--2-4-2-4-6-4-2--2/4-6--2/4-6--2-4-2-4-6-4------------------|
E|-------------------------------------------------------------------------|

e|-------------------------------------------------------------------------|
B|-------------------------------------------------------------------------|
G|-------------------------------------------------------------------------|
D|-------------------------------------------------------------------------|
A|-2/4-6--2/4-6--2-4-2-4-6-4-2--2/4-6--2/4-6/------------------------------|
E|-------------------------------------------------------------------------|

e|-------------------------------------------------------------------------|
B|-------------------------------------------------------------------------|
G|-------------------------------------------------------------------------|
D|-44-XX-44-XX-44-XX-44----------------------------------------------------|
A|-44-XX-44-XX-44-XX-44----------------------------------------------------|
E|-22-XX-22-XX-22-XX-22-12\------------------------------------------------|

Verse:(Before ever phrase)
e|-------------------------------------------------------------------------|
B|-------------------------------------------------------------------------|
G|--4-4-----------------------------4-4------------------------------------|
D|--4-4-----2-2-----6-6-----4-4-----4-4-----2-2-----6-6-----4-4------------|
A|--2-2-----2-2-----6-6-----4-4-----2-2-----2-2-----6-6-----4-4------------|
E|----------0-0-----4-4-----2-2-------------0-0-----4-4-----2-2-12\--------|

(Changes at every phrase)
e|-------------------------------------------------------------------------|
B|-------------------------------------------------------------------------|
G|--44444444----------------------------44444444---------------------------|
D|--44444444-22222222-66666666-44444444-44444444-22222222-66666666-44-XX-44|
A|--22222222-22222222-66666666-44444444-22222222-22222222-66666666-44-XX-44|
E|-----------00000000-44444444-22222222----------00000000-44444444-22-XX-22|
    ........ ........ ........ ........ ........ ........ ........
e|-------------------------------------------------------------------------|
B|-------------------------------------------------------------------------|
G|-------------------------------------------------------------------------|
D|--XX-44-XX-44------------------------------------------------------------|
A|--XX-44-XX-44------------------------------------------------------------|
E|--XX-22-XX-22------------------------------------------------------------|

Chorus:
e|-------------------------------------------------------------------------|
B|-------------------------------------------------------------------------|
G|--44444444----------------------------44444444---------------------------|
D|--44444444-22222222-66666666-44444444-44444444-22222222-66666666-77-77-77|
A|--22222222-22222222-66666666-44444444-22222222-22222222-66666666-77-77-77|
E|-----------00000000-44444444-22222222----------00000000-44444444-55-55-55|

e|-------------------------------------------------------------------------|
B|-------------------------------------------------------------------------|
G|-------------------------------------------------------------------------|
D|-77----------------------------------------------------------------------|
A|-77----------------------------------------------------------------------|
E|-55----------------------------------------------------------------------|

Post Chorus:(same as intro)
e|-------------------------------------------------------------------------|
B|-------------------------------------------------------------------------|
G|-------------------------------------------------------------------------|
D|-------------------------------------------------------------------------|
A|--2/4-6--2/4-6--2-4-2-4-6-4-2--2/4-6--2/4-6--2-4-2-4-6-4-----------------|
E|-------------------------------------------------------------------------|

Verse:(Before ever phrase)
e|-------------------------------------------------------------------------|
B|-------------------------------------------------------------------------|
G|--4-4-----------------------------4-4------------------------------------|
D|--4-4-----2-2-----6-6-----4-4-----4-4-----2-2-----6-6-----4-4------------|
A|--2-2-----2-2-----6-6-----4-4-----2-2-----2-2-----6-6-----4-4------------|
E|----------0-0-----4-4-----2-2-------------0-0-----4-4-----2-2-12\--------|

(Changes at every phrase)
e|-------------------------------------------------------------------------|
B|-------------------------------------------------------------------------|
G|--44444444----------------------------44444444---------------------------|
D|--44444444-22222222-66666666-44444444-44444444-22222222-66666666-44-XX-44|
A|--22222222-22222222-66666666-44444444-22222222-22222222-66666666-44-XX-44|
E|-----------00000000-44444444-22222222----------00000000-44444444-22-XX-22|
    ........ ........ ........ ........ ........ ........ ........
e|-------------------------------------------------------------------------|
B|-------------------------------------------------------------------------|
G|-------------------------------------------------------------------------|
D|--XX-44-XX-44------------------------------------------------------------|
A|--XX-44-XX-44------------------------------------------------------------|
E|--XX-22-XX-22------------------------------------------------------------|

Chorus:
e|-------------------------------------------------------------------------|
B|-------------------------------------------------------------------------|
G|--44444444----------------------------44444444---------------------------|
D|--44444444-22222222-66666666-44444444-44444444-22222222-66666666-77-77-77|
A|--22222222-22222222-66666666-44444444-22222222-22222222-66666666-77-77-77|
E|-----------00000000-44444444-22222222----------00000000-44444444-55-55-55|

e|-------------------------------------------------------------------------|
B|-------------------------------------------------------------------------|
G|-------------------------------------------------------------------------|
D|-77----------------------------------------------------------------------|
A|-77----------------------------------------------------------------------|
E|-55----------------------------------------------------------------------|

Solo:
e|-------------------------------------------------------------------------|
B|-------------------------------------------------------------------------|
G|---8-6-4--4-6-8--8-6-4--8BP6--8BP6--8BP6--6-4~---------------------------|
D|-------------------------------------------------------------------------|
A|-------------------------------------------------------------------------|
E|-------------------------------------------------------------------------|

Bridge:
e|-------------------------------------------------------------------------|
B|-------------------------------------------------------------------------|
G|-------------------------------------------------------------------------|
D|---------44-XX-44-XX-44--------------------------------------------------|
A|>>>>>>>--44-XX-44-XX-44--------------------------------------------------|
E|>>>>>>>--22-XX-22-XX-22--------------------------------------------------|

Outro:
e|-------------------------------------------------------------------------|
B|-------------------------------------------------------------------------|
G|--44444444----------------------------44444444---------------------------|
D|--44444444-22222222-66666666-44444444-44444444-22222222-66666666---------|
A|--22222222-22222222-66666666-44444444-22222222-22222222-66666666---------|
E|-----------00000000-44444444-22222222----------00000000-44444444---------|

e|-------------------------------------------------------------------------|
B|-------------------------------------------------------------------------|
G|-44444444----------------------------44444444----------------------------|
D|-44444444-22222222-66666666-44444444-44444444-22222222-66666666-77-77-77\|
A|-22222222-22222222-66666666-44444444-22222222-22222222-66666666-77-77-77\|
E|----------00000000-44444444-22222222----------00000000-44444444-55-55-55\|

Tap to rate this tab
# A B C D E F G H I J K L M N O P Q R S T U V W X Y Z