Song name
# A B C D E F G H I J K L M N O P Q R S T U V W X Y Z

Bowling For Soup - Today Is Gonna Be A Great Day tab

-------------------------------------------------------------------------------
			     Today Is Gonna Be A Great Day - Bowling For Soup
-----------------------------------------------------------------------------Hi Guys, 
This Tab Is Ok But Its My First One, I Tried To Play The Intro
For Ages But I Couldn't Do It So Its Not Included, But The Chords Are: Gm, Em, A and D.

Tabbed by:Sam Noah
Email:rockstar13@live.co.uk

Tuning: Standard

 Start On: Building A Rocket...

  VERSE

e|----------------------------------------------------------------------|
B|----------------------------------------------------------------------|
G|----------------------------------------------------------------------|
D|-------------------------------------8888888888888888-----------------|
A|---6666666666666666-8888888888888888-6666666666666666-6666666666666666|
E|---4444444444444444-6666666666666666------------------4444444444444444|

e|----------------------------------------------------------------------|
B|----------------------------------------------------------------------|
G|----------------------------------------------------------------------|
D|--------------------------333333333-0------------------555555555-6-5-3|
A|-6-5-4-3-3333333333333333-111111111-0-5555555555555555-333333333-4-3-1|
E|-4-3-2-1-1111111111111111-----------0-3333333333333333----------------|

 CHORUS

e|----------------------------------------------------------------------|
B|----------------------------------------------------------------------|
G|----------------------------------------------------------------------|
D|------------6666666666------------66666-8888888-666666-888888---------|
A|-6666666666-4444444444-6666666666-44444-6666666-444444-666666---------|
E|-4444444444------------4444444444-------------------------------------|

e|----------------------------------------------------------------------|
B|----------------------------------------------------------------------|
G|----------------------------------------------------------------------|
D|-------666666-666666666666-888888888----------------------------------|
A|-66-55-444444-444444444444-666666666---66666666-----------------------|
E|-44-33---------------------------------44444444-----------------------|

VERSE

e|----------------------------------------------------------------------|
B|----------------------------------------------------------------------|
G|----------------------------------------------------------------------|
D|-------------------------------------8888888888888888-----------------|
A|---6666666666666666-8888888888888888-6666666666666666-6666666666666666|
E|---4444444444444444-6666666666666666------------------4444444444444444|

e|------------------------------------0---------------------------------|
B|------------------------------------0---------------------------------|
G|------------------------------------0---------------------------------|
D|--------------------------333333333--------------------555555555-6-5-3|
A|-6-5-4-3-3333333333333333-111111111---5555555555555555-333333333-4-3-1|
E|-4-3-2-1-1111111111111111-------------3333333333333333----------------|

CHORUS

e|----------------------------------------------------------------------|
B|----------------------------------------------------------------------|
G|----------------------------------------------------------------------|
D|------------6666666666------------66666-8888888-666666-888888---------|
A|-6666666666-4444444444-6666666666-44444-6666666-444444-666666---------|
E|-4444444444------------4444444444-------------------------------------|

e|----------------------------------------------------------------------|
B|----------------------------------------------------------------------|
G|----------------------------------------------------------------------|
D|-------666666-666666666666-888888888----------------------------------|
A|-66-55-444444-444444444444-666666666----88888888----------------------|
E|-44-33----------------------------------66666666----------------------|

INTERLUDE THING

e|----------------------------------------------------------------------|
B|----------------------------------------------------------------------|
G|----------------------------------------------------------------------|
D|----------------------------------------------------------------------|
A|-66666666-6-5-4-3-3333333333333333333333333333------------------------|
E|-44444444-4-3-2-1-1111111111111111111111111111------------------------|

  Start On: We Got Our Mission...

e|----1---1---1---1----3---3---3---3----4---4---4---4----6---6---6---6--|
B|----------------------------------------------------------------------|
G|----------------------------------------------------------------------|
D|-3333333333333333-5555555555555555-6666666666666666-8888888888888888--|
A|-1111111111111111-3333333333333333-4444444444444444-6666666666666666--|
E|----------------------------------------------------------------------|

These Are 10's and 13's
e|-1313131313-----------------------------------------------------------|
B|----------------------------------------------------------------------|
G|----------------------------------------------------------------------|
D|-1010101010-----------------------------------------------------------|
A|-8-8-8-8-8------------------------------------------------------------|
E|----------------------------------------------------------------------|

CHORUS

e|----------------------------------------------------------------------|
B|----------------------------------------------------------------------|
G|----------------------------------------------------------------------|
D|------------6666666666------------66666-8888888-666666-888888---------|
A|-6666666666-4444444444-6666666666-44444-6666666-444444-666666---------|
E|-4444444444------------4444444444-------------------------------------|

e|----------------------------------------------------------------------|
B|----------------------------------------------------------------------|
G|----------------------------------------------------------------------|
D|-------666666-666666666666-888888888----------------------------------|
A|-66-55-444444-444444444444-666666666----------------------------------|
E|-44-33----------------------------------------------------------------|

OUTRO

e|----------------------------------------------------------------------|
B|----------------------------------------------------------------------|
G|----------------------------------------------------------------------|
D|------------6666666666------------6666666666--------------------------|
A|-6666666666-4444444444-6666666666-4444444444-6------------------------|
E|-4444444444------------4444444444------------4------------------------|
************************************
Tap to rate this tab
 
# A B C D E F G H I J K L M N O P Q R S T U V W X Y Z