Song name
# A B C D E F G H I J K L M N O P Q R S T U V W X Y Z

Bowling For Soup - Almost Acoustic tab

ALMOST
Intro
 x6
E|--------------------------------------|
B|--------------------------------------|
G|-4-6/8/4--4-6/8/4--4-6/8/4--4--9/8/4--|
D|-x-x/x/x--X-X/X/X--X-X/X/X--X--X/X/X--|
A|-2-4/6/2--2-4/6/2--2-4/6/2--2--7/6/2--|
E|--------------------------------------|

E|--------------------------------------|
B|--------------------------------------|
G|-4-6/8/4--4-6/8/4--4-6/8/4--4--9/8/4--|
D|-x-x/x/x--X-X/X/X--X-X/X/X--X--X/X/X--|
A|-2-4/6/2--2-4/6/2--2-4/6/2--2--7/6/2--|
E|--------------------------------------|

verse 1
E|----------------------------------|
B|----------------------------------|
G|-44-4444--------------------------|
D|-44-4444-44-4444-66-6666-22-2222--|
A|-22-2222-44-4444-66-6666-22-2222--|
E|---------22-2222-44-4444-00-0000--|

E|----------------------------------|
B|----------------------------------|
G|-44-4444--------------------------|
D|-44-4444-44-4444-66-6666-22-2222--|
A|-22-2222-44-4444-66-6666-22-2222--|
E|---------22-2222-44-4444-00-0000--|

E|----------------------------------|
B|----------------------------------|
G|-44-4444--------------------------|
D|-44-4444-44-4444-66-6666-22222----|
A|-22-2222-44-4444-66-6666-22222----|
E|---------22-2222-44-4444-00000----|

Chorus 
E|----------------------------------|
B|----------------------------------|
G|-4-444----------------------------|
D|-4-444-4-444-6-666-2-2222---------|
A|-2-222-4-444-6-666-2-2222---------|
E|-------2-224-4-444-0-0000---------|

E|--------------------------------|
B|--------------------------------|
G|-4-444--------------------------|
D|-4-444-4-444-6-666-222222-------|
A|-2-222-4-444-6-666-222222-------|
E|-------2-222-4-444-000002-------|

E|--------------------------------------|
B|--------------------------------------|
G|-4-6/8/4--4-6/8/4--4-6/8/4--4--9/8/4--|
D|-x-x/x/x--X-X/X/X--X-X/X/X--X--X/X/X--|
A|-2-4/6/2--2-4/6/2--2-4/6/2--2--7/6/2--|
E|--------------------------------------|

verse 2
E|----------------------------------|
B|----------------------------------|
G|-44-4444--------------------------|
D|-44-4444-44-4444-66-6666-22-2222--|
A|-22-2222-44-4444-66-6666-22-2222--|
E|---------22-2222-44-4444-00-0000--|

E|----------------------------------|
B|----------------------------------|
G|-44-4444--------------------------|
D|-44-4444-44-4444-66-6666-22-2222--|
A|-22-2222-44-4444-66-6666-22-2222--|
E|---------22-2222-44-4444-00-0000--|

E|----------------------------------|
B|----------------------------------|
G|-44-4444--------------------------|
D|-44-4444-44-4444-66-6666-222222---|
A|-22-2222-44-4444-66-6666-222222---|
E|---------22-2222-44-4444-000000---|

Chorus 
E|--------------------------------|
B|--------------------------------|
G|-4-444--------------------------|
D|-4-444-4-444-6-666-2-2222-------|
A|-2-222-4-444-6-666-2-2222-------|
E|-------2-222-4-444-0-0000-------|

E|--------------------------------|
B|--------------------------------|
G|-4-444--------------------------|
D|-4-444-4-444-6-666-222222-------|
A|-2-222-4-444-6-666-222222-------|
E|-------2-222-4-444-000002-------|

E|-----------------------------------------|
B|-----------------------------------------|
G|-------------------------444444444444----|
D|-66-6666-44-4444-22-2222-444444444444--4-|
A|-66-6666-44-4444-22-2222-222222222222--4-|
E|-44-4444-22-2222-00-0000---------------2-|

E|--------------------------------------|
B|--------------------------------------|
G|-4-6/8/4--4-6/8/4--4-6/8/4--4--9/8/4--|
D|-x-x/x/x--X-X/X/X--X-X/X/X--X--X/X/X--|
A|-2-4/6/2--2-4/6/2--2-4/6/2--2--7/6/2--|
E|--------------------------------------|

Bridge
E|--------------------------------------|
B|--------------------------------------|
G|---------------44444444---------------|
D|-444444-444444-44444444-22222222------|x2
A|-444444-444444-22222222-22222222------|
E|-222222-222222----------00000000------| 

E|------------------------------------|
B|------------------------------------|
G|--------------------------4---------|
D|-66-6666-44-4444-22-2222--4---------|
A|-66-6666-44-4444-22-2222--2---------|
E|-44-4444-22-2222-00-0000------------|

E|--------------------------------------------|
B|--------------------------------------------|
G|-4-----------4444-----------------22222222--|
D|-4--4--6--2--4444-444444-66666666-22222222--|
A|-2--4--6--2--2222-444444-66666666-00000000--|
E|----2--4--0-------222222-44444444-----------|

E|----------------------------------|
B|----------------------------------|
G|-44-4444--------------------------|
D|-44-4444-44-4444-66-6666-22-2222--|
A|-22-2222-44-4444-66-6666-22-2222--|
E|---------22-2222-44-4444-00-0000--|

E|----------------------------------|
B|----------------------------------|
G|-44-4444--------------------------|
D|-44-4444-44-4444-66-6666-22-2222--|
A|-22-2222-44-4444-66-6666-22-2222--|
E|---------22-2222-44-4444-00-0000--|

E|-----------------------------------------|
B|-----------------------------------------|
G|-------------------------444444444444----|
D|-66-6666-44-4444-22-2222-444444444444----|
A|-66-6666-44-4444-22-2222-222222222222----|
E|-44-4444-22-2222-00-0000-----------------|

E|----------------------------------|
B|----------------------------------|
G|-44-4444--------------------------|
D|-44-4444-44-4444-66-6666-22-2222--|
A|-22-2222-44-4444-66-6666-22-2222--|
E|---------22-2222-44-4444-00-0000--| 

E|----------------------------------|
B|----------------------------------|
G|-44-4444--------------------------|
D|-44-4444-44-4444-66-6666-22-2222--|
A|-22-2222-44-4444-66-6666-22-2222--|
E|---------22-2222-44-4444-00-0000--|

E|----------------------------------------------|
B|----------------------------------------------|
G|-44-4444-------------------------444444444444-|
D|-44-4444-44-4444-66-6666-22-2222-444444444444-|
A|-22-2222-44-4444-66-6666-22-2222-222222222222-|
E|---------22-2222-44-4444-00-0000--------------|

outro
E|--------------------------------------|
B|--------------------------------------|
G|-4-6/8/4--4-6/8/4--4-6/8/4--4--9/8/4--|
D|-x-x/x/x--X-X/X/X--X-X/X/X--X--X/X/X--|
A|-2-4/6/2--2-4/6/2--2-4/6/2--2--7/6/2--|
E|--------------------------------------|

E|--------------------------|
B|--------------------------|
G|-4-6/8/4------------------|
D|-x-x/x/x--4-4-4444-4-4-2--|
A|-2-4/6/2--4-4-4444-4-4-2--|
E|----------2-2-2222-2-2-0--|
end
E|------------------------------|
B|------------------------------|
G|-4/8-6/8/4--------------------|
D|-x/x-x/x-x-x3-4-4-4444-4-4-2~-|
A|-2/6-4/6-2----4-4-4444-4-4-2~-|
E|--------------2-2-2222-2-2-0~-|

Tap to rate this tab
 
# A B C D E F G H I J K L M N O P Q R S T U V W X Y Z