Bowling For Soup - Hooray For Beer tab

Tab by Jin Lee 

Gtr.Legends:
. - palm muting
x - dead string
~ - let it ring
h - hammer-on
p - pull-off
/ - slide
b - bend

Intro
e|-----------------------------|
B|-----------------------------|
G|-9--11-8-9-6--2--------------|
D|-x--x--x-x-x--2--4-----------|
A|-7--9--6-7-4--0--4-----------| 
E|-----------------2-----------|

Verse

e|----------------|------------]
B|----------------|------------]
G|--9--9--6--2----|-2----------] x2
D|--9--9--6--2----|-2--4-------]
A|--7--6--4--0----|-0--4-------]
E|----------------|----2-------]
          .  .  .   .
              x2          2nd time only

Bridge

e|------------]--------------|
B|------------]--------------|
G|-6--8--9----]-------4------|
D|-6--8--9--7-]--4----4------|
A|-4--6--7--7-]--4----2------| 
E|----------5-]--2-----------|
          p .

Chorus

e|--------------]----------------------]----------|
B|--------------]----------------------]----------|
G|-----4-----2--]-----4----------------]--5--4----|
D|--2--4--4--2--]--2--4--4-/-6-/-7-/-6-]--5--4--2-|
A|--2--2--4--0--]--2--2--4-/-6-/-7-/-6-]--3--2--2-| 
E|--0-----2-----]--0-----2-/-4-/-5-/-4-]--------0-|
       x2             2nd time only

Interlude

e|-----------------]--------------|
B|-----------------]--------------|
G|-----------------]--------------|
D|-7--6--4--2-/-6--]-7--8--9~-----|
A|-7--6--4--2-/-6--]-7--8--9~-----| 
E|-5--4--2--0-/-4--]-5--6--7~-----|



Outtro 

e|-------------------------------|
B|-------------------------------|
G|--5~--4~--5~--4~--5~--7~-------|
D|--5~--4~--5~--4~--5~--7~--5~---|
A|--3~--2~--3~--2~--3~--5~--5~---| 
E|--------------------------3~---|
Tap to rate this tab
 
# A B C D E F G H I J K L M N O P Q R S T U V W X Y Z