Bowling For Soup - Merry Christmas I Dont Wanna Fight Tonight tab

-----------------------------------------------------------------
Merry Christmas (I Don't Wanna Fight Tonight) - Bowling For Soup
-----------------------------------------------------------------
Tabbed by: Bair
Email: bair_morritt@hotmail.com

Tuning: Standard

**A little two minute Ramones song that BFS covered**


Intro:
e|---------2------0----------|
B|--2------3------0----------|
G|--2------2------1----------|
D|--2------0------2----------|
A|--0------0------2----------|
E|----------------0----------|
"Merry Christmas, I don't want to fight to...."

e|----------------------------------------------------|
B|----------------------------------------------------|
G|----------------------------------------------------|
D|--77777777--77777777--77777777--77777777------------|
A|--77777777--77777777--77777777--77777777------------|
E|--45555555--45555555--45555555--45555555------------|

e|----------------------------------|
B|----------------------------------|
G|------------7777--9999------------|
D|--77777777--7777--9999--(X4)------|
A|--77777777--5555--7777------------|
E|--55555555------------------------|
"Yeah, Yeah-A Yeah...."

Chorus:
e|----------------------------------------------------|
B|----------------------------------------------------|
G|------------7777--9999------------77-----999--------|
D|--77777777--7777--9999--(X3)--777-77-777-999--------|
A|--77777777--5555--7777--------777-55-777-777--------|
E|--55555555--------------------555----555------------|
"Merry Christmas, I don't wanna fight tonight...."

Verse (P.M):
e|----------------------------------|
B|----------------------------------|
G|------------7777--9999------------|
D|--77777777--7777--9999--(X4)------|
A|--77777777--5555--7777------------|
E|--55555555------------------------|
"Where is santa? At his sleigh?"

e|----------------------------------------------------|
B|----------------------------------------------------|
G|------------7777--9999------------77-----999--------|
D|--77777777--7777--9999--(X3)--777-77-777-999--------|
A|--77777777--5555--7777--------777-55-777-777--------|
E|--55555555--------------------555----555------------|
"All the children are tucked in their beds...."

Bridge:
e|----------------------------------------------------|
B|----------------------------------------------------|
G|--7777777777777777----------------------------------|
D|--7777777777777777--7777777777777777----------------|
A|--5555555555555555--7777777777777777----------------|
E|--------------------5555555555555555----------------|
"I love you. You love me. And that's the way it's...."

e|----------------------------------------------------|
B|----------------------------------------------------|
G|--7777777777777777--44444444------------------------|
D|--7777777777777777--44444444--22222222--------------|
A|--5555555555555555--22222222--22222222--------------|
E|------------------------------00000000--------------|
"I loved you from the start cause Christmas ain't...."

-Then Verse
-Then Bridge

Outro
e|------------------------------------------------------|
B|------------------------------------------------------|
G|------------7-7-7-9-9-9------------------7------------|
D|--77777777--7-7-7-9-9-9--(X2)--77777777--7----2----7--|
A|--77777777--5-5-5-7-7-7--------77777777--5----2----7--|
E|--55555555---------------------55555555-------0----5--|
"Merry Christmas, I don't wanna fight tonight...."

**Let last note ring**

----------------------------------------------------------------------
Lyrics:

Merry Christmas, I don't want to fight tonight
Merry Christmas, I don't want to fight tonight 
Merry Christmas, I don't want to fight tonight with you

Where is Santa? At his sleigh?
Tell me why is it always this way?
Where is Rudolph? Where is Blitzen, baby?
Merry Christmas, merry merry merry Christmas

All the children are tucked in their beds
Sugar-plum fairies dancing in their heads
Snowball fighting, it's so exciting baby

I love you and you love me
And that's the way it's got to be
I loved you from the start
'Cause Christmas ain't the time for breaking each other's hearts

Where is Santa? At his sleigh?
Tell me why is it always this way?
Where is Rudolph? Where is Blitzen, baby?
Merry Christmas, merry merry merry Christmas

All the children are tucked in their beds
Sugar-plum fairies dancing in their heads
Snowball fighting, it's so exciting baby

Yeah, yeah, yeah

I love you and you love me
And that's the way it's got to be
I loved you from the start
'Cause Christmas ain't the time for breaking each other's hearts

Merry Christmas, I don't want to fight tonight
Merry Christmas, I don't want to fight tonight 
Merry Christmas, I don't want to fight tonight with you
Tap to rate this tab
 
# A B C D E F G H I J K L M N O P Q R S T U V W X Y Z