Song name
# A B C D E F G H I J K L M N O P Q R S T U V W X Y Z

Bowling For Soup - All I Want For Christmas Is You tab

-------------------------------------------------------------------------------
			     ALL I WANT FOR CHRISTMAS IS YOU - Bowling for Soup
-------------------------------------------------------------------------------
Tabbed by:snowmotion	
Email:paulpryan@hotmail.com

Tuning: Standard

Intro:
e|---------------------------------------------------|
B|---------------------------------------------------|
G|-------------------6---------7---6---5---7-------5-|
D|-3-----7-----8-----6-----3---7---6---5---7---5---5-|
A|-3-----7-----8-----4-----3---5---4---3---5---5---3-|
E|-1-----5-----6-----------1-0-----------------3-----|

e|-------------------------------------------------|
B|-------------------------------------------------|
G|-------------7-7-7-7-7-7-3-3-3-3-3-3-5-5-5-5-5-5-|
D|-3-3-3-3-3-3-7-7-7-7-7-7-3-3-3-3-3-3-5-5-5-5-5-5-|
A|-3-3-3-3-3-3-5-5-5-5-5-5-1-1-1-1-1-1-3-3-3-3-3-3-|
E|-1-1-1-1-1-1-------------------------------------|

Verse:
e|-------------------------------|
B|-------------------------------|
G|-------3---6-------------3---6-|
D|-3-----3---6-----3---3---3---6-|
A|-3-----1---4-----3---3---1---4-|
E|-1---------------1---1---------|

Chorus:
e|-----------------------------------------------------------------|
B|-----------------------------------------------------------------|
G|-----------------7-7-7-7-6-6-6-6-5-5-5-5-7-7-7-7---------5-5-5-5-|
D|-3-3-3-3-3-3-3-3-7-7-7-7-6-6-6-6-5-5-5-5-7-7-7-7-5-5-5-5-5-5-5-5-|
A|-3-3-3-3-3-3-3-3-5-5-5-5-4-4-4-4-3-3-3-3-5-5-5-5-5-5-5-5-3-3-3-3-|
E|-1-1-1-1-1-1-0-0---------------------------------3-3-3-3---------|

e|-------------------------------------------------|
B|-------------------------------------------------|
G|-------------7-7-7-7-7-7-3-3-3-3-3-3-5-5-5-5-5-5-|
D|-3-3-3-3-3-3-7-7-7-7-7-7-3-3-3-3-3-3-5-5-5-5-5-5-|
A|-3-3-3-3-3-3-5-5-5-5-5-5-1-1-1-1-1-1-3-3-3-3-3-3-|
E|-1-1-1-1-1-1-------------------------------------|

Verse

Chorus

Middle 8:
e|-----------------------------------------------------------------|
B|-----------------------------------------------------------------|
G|-----------------7-7-7-7-7-7-7-7-----------------7-7-7-7-7-7-7-7-|
D|-7-7-7-7-7-7-7-7-7-7-7-7-7-7-7-7-7-7-7-7-7-7-7-7-7-7-7-7-7-7-7-7-|
A|-7-7-7-7-7-7-7-7-5-5-5-5-5-5-5-5-7-7-7-7-7-7-7-7-5-5-5-5-5-5-5-5-|
E|-5-5-5-5-5-5-5-5-----------------5-5-5-5-5-5-5-5-----------------|

e|-----------------------------------------------------------------|
B|-----------------------------------------------------------------|
G|-6-6-6-6-6-6-6-6-5-5-5-5-7-7-7-7-----------------5-5-5-5-5-5-5-5-|
D|-6-6-6-6-6-6-6-6-5-5-5-5-7-7-7-7-5-5-5-5-5-5-5-5-5-5-5-5-5-5-5-5-|
A|-4-4-4-4-4-4-4-4-3-3-3-3-5-5-5-5-5-5-5-5-5-5-5-5-3-3-3-3-3-3-3-3-|
E|---------------------------------3-3-3-3-3-3-3-3-----------------|

Last Verse:
e|-------------------------------------------------|
B|-------------------------------------------------|
G|-----------------3-3-3-3-3-3-3-3-6-6-6-6-6-6-6-6-|
D|-3-3-3-3-3-3-3-3-3-3-3-3-3-3-3-3-6-6-6-6-6-6-6-6-|
A|-3-3-3-3-3-3-3-3-1-1-1-1-1-1-1-1-4-4-4-4-4-4-4-4-|
E|-1-1-1-1-1-1-1-1---------------------------------|


Chorus

After playing the chorus once, play this part twice more:

e|-------------------------------------------------|
B|-------------------------------------------------|
G|-------------7-7-7-7-7-7-3-3-3-3-3-3-5-5-5-5-5-5-|
D|-3-3-3-3-3-3-7-7-7-7-7-7-3-3-3-3-3-3-5-5-5-5-5-5-|
A|-3-3-3-3-3-3-5-5-5-5-5-5-1-1-1-1-1-1-3-3-3-3-3-3-|
E|-1-1-1-1-1-1-------------------------------------|

End on 	
e|-
B|-
G|-
D|3
A|3
E|1

I'm pretty sure this is accurate, comment and rate please!

Merry Christmas!

************************************

| /   slide up
| \   slide down
| h   hammer-on
| p   pull-off
| ~   vibrato
| +   harmonic
| x   Mute note
| b   Bend
| pb  Pre-bend
| br  Bend release
| pbr Pre-bend release
| brb Bend release bend

************************************
Tap to rate this tab
# A B C D E F G H I J K L M N O P Q R S T U V W X Y Z