Bowling For Soup - Me With No You tab

-------------------------------------------------------------------------------
			     ME WITH NO YOU - Bowling For Soup
-------------------------------------------------------------------------------
Tabbed by: Nicole Hodson (NeekaTodd)
Email: neekatodd@hotmail.com

Tuning: Standard

There are other bits throughout that are played by a second guitar but this is 
just the main chords.
Strumming pattern is down the whole way through.


INTRO
e|---------------------------------------------------------------------------|
B|---------------------------------------------------------------------------|
G|---------------------------------------------------------------------------|
D|-3-3-3-3-3-3-3-3-3-3-3-3-3-3-3---------------------------------------------|
A|-3-3-3-3-3-3-3-3-3-3-3-3-3-3-3---------------------------------------------|
E|-1-1-1-1-1-1-1-1-1-1-1-1-1-1-1---------------------------------------------|

VERSE
e|---------------------------------------------------------------------------|
B|---------------------------------------------------------------------------|
G|---------------------------------------------------------------------------|
D|-3-3-3-3-3-3-3-3-3-3-3-3-3-3-3-3-3-----------------------------------------|
A|-3-3-3-3-3-3-3-3-3-3-3-3-3-3-3-3-3-----------------------------------------|
E|-1-1-1-1-1-1-1-1-1-1-1-1-1-1-1-1-1-----------------------------------------|
 I'm not lost, I just haven't found everything I need

e|---------------------------------------------------------------------------|
B|---------------------------------------------------------------------------|
G|-3-3-3-3-3-3-3-3-3-3-3-3-3-3-3-3-3-----------------------------------------|
D|-3-3-3-3-3-3-3-3-3-3-3-3-3-3-3-3-3-----------------------------------------|
A|-1-1-1-1-1-1-1-1-1-1-1-1-1-1-1-1-1-----------------------------------------|
E|---------------------------------------------------------------------------|
I'm not torn, I'm just getting it together

e|---------------------------------------------------------------------------|
B|---------------------------------------------------------------------------|
G|---------------------------------------------------------------------------|
D|-3-3-3-3-3-3-3-3-3-3-3-3-3-3-3-3-3-----------------------------------------|
A|-3-3-3-3-3-3-3-3-3-3-3-3-3-3-3-3-3-----------------------------------------|
E|-1-1-1-1-1-1-1-1-1-1-1-1-1-1-1-1-1-----------------------------------------|
I'm not broken, don't you mind the pieces of me

e|---------------------------------------------------------------------------|
B|---------------------------------------------------------------------------|
G|-3-3-3-3-3-3-3-3-3-3-3-3-3-3-3-3-3-----------------------------------------|
D|-3-3-3-3-3-3-3-3-3-3-3-3-3-3-3-3-3-----------------------------------------|
A|-1-1-1-1-1-1-1-1-1-1-1-1-1-1-1-1-1-----------------------------------------|
E|---------------------------------------------------------------------------|
That you see scattered on the ground, I swear I'll turn this thing around

e|---------------------------------------------------------------------------|
B|---------------------------------------------------------------------------|
G|---------------------------------------------------------------------------|
D|-3-3-3-3-3-3-3-3-3-3-3-3-3-3-3-3-3-----------------------------------------|
A|-3-3-3-3-3-3-3-3-3-3-3-3-3-3-3-3-3-----------------------------------------|
E|-1-1-1-1-1-1-1-1-1-1-1-1-1-1-1-1-1-----------------------------------------|
 I'm not home but I'm sitting here in my room

e|---------------------------------------------------------------------------|
B|---------------------------------------------------------------------------|
G|-3-3-3-3-3-3-3-3-3-3-3-3-3-3-3-3-3-----------------------------------------|
D|-3-3-3-3-3-3-3-3-3-3-3-3-3-3-3-3-3-----------------------------------------|
A|-1-1-1-1-1-1-1-1-1-1-1-1-1-1-1-1-1-----------------------------------------|
E|---------------------------------------------------------------------------|
I'm a photograph in need of a zoom

e|---------------------------------------------------------------------------|
B|---------------------------------------------------------------------------|
G|---------------------------------------------------------------------------|
D|-3-3-3-3-3-3-3-3-3-3-3-3-3-3-3-3-3-----------------------------------------|
A|-3-3-3-3-3-3-3-3-3-3-3-3-3-3-3-3-3-----------------------------------------|
E|-1-1-1-1-1-1-1-1-1-1-1-1-1-1-1-1-1-----------------------------------------|
I feel far away, I can't make out the face

e|---------------------------------------------------------------------------|
B|---------------------------------------------------------------------------|
G|-3-3-3-3-3-3-3-3-3-3-3-3-3-3-3-3-3-----------------------------------------|
D|-3-3-3-3-3-3-3-3-3-3-3-3-3-3-3-3-3-----------------------------------------|
A|-1-1-1-1-1-1-1-1-1-1-1-1-1-1-1-1-1-----------------------------------------|
E|---------------------------------------------------------------------------|
It's all blurred since you went away

PRECHORUS
e|---------------------------------------------------------------------------|
B|---------------------------------------------------------------------------|
G|-5-5-5-5-5-5-5-5-3-3-3-3-3-3-3-3-------------------------------------------|
D|-5-5-5-5-5-5-5-5-3-3-3-3-3-3-3-3-------------------------------------------|
A|-3-3-3-3-3-3-3-3-1-1-1-1-1-1-1-1-------------------------------------------|
E|---------------------------------------------------------------------------|
When you took your keys out you took a little piece of me

CHORUS
e|---------------------------------------------------------------------------|
B|---------------------------------------------------------------------------|
G|---------------------------------------------------------------------------|
D|-3-3-3-3-3-3-3-3-----------------------------------------------------------|
A|-3-3-3-3-3-3-3-3-----------------------------------------------------------|
E|-1-1-1-1-1-1-1-1-----------------------------------------------------------|
I'm a circle incomplete

e|---------------------------------------------------------------------------|
B|---------------------------------------------------------------------------|
G|-3-3-3-3-3-3-3-3-----------------------------------------------------------|
D|-3-3-3-3-3-3-3-3-----------------------------------------------------------|
A|-1-1-1-1-1-1-1-1-----------------------------------------------------------|
E|---------------------------------------------------------------------------|
I'm a heart that barely beats

e|---------------------------------------------------------------------------|
B|---------------------------------------------------------------------------|
G|-7-7-7-7-7-7-7-7-5-5-5-5-5-5-5-5-------------------------------------------|
D|-7-7-7-7-7-7-7-7-5-5-5-5-5-5-5-5-------------------------------------------|
A|-5-5-5-5-5-5-5-5-3-3-3-3-3-3-3-3-------------------------------------------|
E|---------------------------------------------------------------------------|
All the memories stay forever like tattoos

e|---------------------------------------------------------------------------|
B|---------------------------------------------------------------------------|
G|---------------------------------------------------------------------------|
D|-3-3-3-3-3-3-3-3-----------------------------------------------------------|
A|-3-3-3-3-3-3-3-3-----------------------------------------------------------|
E|-1-1-1-1-1-1-1-1-----------------------------------------------------------|
I'm a star without a sky

e|---------------------------------------------------------------------------|
B|---------------------------------------------------------------------------|
G|-3-3-3-3-3-3-3-3-----------------------------------------------------------|
D|-3-3-3-3-3-3-3-3-----------------------------------------------------------|
A|-1-1-1-1-1-1-1-1-----------------------------------------------------------|
E|---------------------------------------------------------------------------|
I'm hello with no goodbye

e|---------------------------------------------------------------------------|
B|---------------------------------------------------------------------------|
G|------------------5~-------------------------------------------------------|
D|-5-5-5-5-5-5-5-5--5~-------------------------------------------------------|
A|-5-5-5-5-5-5-5-5--3~-------------------------------------------------------|
E|-3-3-3-3-3-3-3-3-----------------------------------------------------------|
I'm the dreams we had that never will come true, that's me with no...

e|---------------------------------------------------------------------------|
B|---------------------------------------------------------------------------|
G|-----------------3-3-3-3-3-3-3-3-----------------3-3-3-3-3-3-3-3-----------|
D|-3-3-3-3-3-3-3-3-3-3-3-3-3-3-3-3-3-3-3-3-3-3-3-3-3-3-3-3-3-3-3-3-----------|
A|-3-3-3-3-3-3-3-3-1-1-1-1-1-1-1-1-3-3-3-3-3-3-3-3-1-1-1-1-1-1-1-1-----------|
E|-1-1-1-1-1-1-1-1-----------------1-1-1-1-1-1-1-1---------------------------|
...you

VERSE
e|---------------------------------------------------------------------------|
B|---------------------------------------------------------------------------|
G|---------------------------------------------------------------------------|
D|-3-3-3-3-3-3-3-3-3-3-3-3-3-3-3-3-3-----------------------------------------|
A|-3-3-3-3-3-3-3-3-3-3-3-3-3-3-3-3-3-----------------------------------------|
E|-1-1-1-1-1-1-1-1-1-1-1-1-1-1-1-1-1-----------------------------------------|
 I'm a mark, I'm a martyr, I'm a victim, I'm a jerk

e|---------------------------------------------------------------------------|
B|---------------------------------------------------------------------------|
G|-3-3-3-3-3-3-3-3-3-3-3-3-3-3-3-3-3-----------------------------------------|
D|-3-3-3-3-3-3-3-3-3-3-3-3-3-3-3-3-3-----------------------------------------|
A|-1-1-1-1-1-1-1-1-1-1-1-1-1-1-1-1-1-----------------------------------------|
E|---------------------------------------------------------------------------|
I'm an engine that just doesn't seem to start

e|---------------------------------------------------------------------------|
B|---------------------------------------------------------------------------|
G|---------------------------------------------------------------------------|
D|-3-3-3-3-3-3-3-3-3-3-3-3-3-3-3-3-3-----------------------------------------|
A|-3-3-3-3-3-3-3-3-3-3-3-3-3-3-3-3-3-----------------------------------------|
E|-1-1-1-1-1-1-1-1-1-1-1-1-1-1-1-1-1-----------------------------------------|
I'm a kingdom with no king, I'm a king without a crown

e|---------------------------------------------------------------------------|
B|---------------------------------------------------------------------------|
G|-3-3-3-3-3-3-3-3-3-3-3-3-3-3-3-3-3-----------------------------------------|
D|-3-3-3-3-3-3-3-3-3-3-3-3-3-3-3-3-3-----------------------------------------|
A|-1-1-1-1-1-1-1-1-1-1-1-1-1-1-1-1-1-----------------------------------------|
E|---------------------------------------------------------------------------|
So I fall down on my knees and I pray nobody sees

PRECHORUS
e|---------------------------------------------------------------------------|
B|---------------------------------------------------------------------------|
G|-5-5-5-5-5-5-5-5-3-3-3-3-3-3-3-3-------------------------------------------|
D|-5-5-5-5-5-5-5-5-3-3-3-3-3-3-3-3-------------------------------------------|
A|-3-3-3-3-3-3-3-3-1-1-1-1-1-1-1-1-------------------------------------------|
E|---------------------------------------------------------------------------|
You got my attention, now please come back to me (come back to me)

CHORUS
e|---------------------------------------------------------------------------|
B|---------------------------------------------------------------------------|
G|---------------------------------------------------------------------------|
D|-3-3-3-3-3-3-3-3-----------------------------------------------------------|
A|-3-3-3-3-3-3-3-3-----------------------------------------------------------|
E|-1-1-1-1-1-1-1-1-----------------------------------------------------------|
I'm a circle incomplete

e|---------------------------------------------------------------------------|
B|---------------------------------------------------------------------------|
G|-3-3-3-3-3-3-3-3-----------------------------------------------------------|
D|-3-3-3-3-3-3-3-3-----------------------------------------------------------|
A|-1-1-1-1-1-1-1-1-----------------------------------------------------------|
E|---------------------------------------------------------------------------|
I'm a heart that barely beats

e|---------------------------------------------------------------------------|
B|---------------------------------------------------------------------------|
G|-7-7-7-7-7-7-7-7-5-5-5-5-5-5-5-5-------------------------------------------|
D|-7-7-7-7-7-7-7-7-5-5-5-5-5-5-5-5-------------------------------------------|
A|-5-5-5-5-5-5-5-5-3-3-3-3-3-3-3-3-------------------------------------------|
E|---------------------------------------------------------------------------|
All the memories stay forever like tattoos

e|---------------------------------------------------------------------------|
B|---------------------------------------------------------------------------|
G|---------------------------------------------------------------------------|
D|-3-3-3-3-3-3-3-3-----------------------------------------------------------|
A|-3-3-3-3-3-3-3-3-----------------------------------------------------------|
E|-1-1-1-1-1-1-1-1-----------------------------------------------------------|
I'm a star without a sky

e|---------------------------------------------------------------------------|
B|---------------------------------------------------------------------------|
G|-3-3-3-3-3-3-3-3-----------------------------------------------------------|
D|-3-3-3-3-3-3-3-3-----------------------------------------------------------|
A|-1-1-1-1-1-1-1-1-----------------------------------------------------------|
E|---------------------------------------------------------------------------|
I'm hello with no goodbye

e|---------------------------------------------------------------------------|
B|---------------------------------------------------------------------------|
G|------------------5-5-5-5-5-5-5-5------------------------------------------|
D|-5-5-5-5-5-5-5-5--5-5-5-5-5-5-5-5------------------------------------------|
A|-5-5-5-5-5-5-5-5--3-3-3-3-3-3-3-3------------------------------------------|
E|-3-3-3-3-3-3-3-3-----------------------------------------------------------|
I'm the dreams we had that never will come true, that's me with no you

BRIDGE
e|---------------------------------------------------------------------------|
B|---------------------------------------------------------------------------|
G|-3-3-3-3-3-3-3-3-----------------------------------------------------------|
D|-3-3-3-3-3-3-3-3-3-3-3-3-3-3-3-3-------------------------------------------|
A|-1-1-1-1-1-1-1-1-3-3-3-3-3-3-3-3-------------------------------------------|
E|-----------------1-1-1-1-1-1-1-1-------------------------------------------|
Can't find the words to fit the melody

e|---------------------------------------------------------------------------|
B|---------------------------------------------------------------------------|
G|-3-3-3-3-3-3-3-3-----------------------------------------------------------|
D|-3-3-3-3-3-3-3-3-----------------------------------------------------------|
A|-1-1-1-1-1-1-1-1-----------------------------------------------------------|
E|---------------------------------------------------------------------------|
But I swear that I could sing it

e|---------------------------------------------------------------------------|
B|---------------------------------------------------------------------------|
G|---------------------------------------------------------------------------|
D|-3-3-3-3-3-3-3-3-----------------------------------------------------------|
A|-3-3-3-3-3-3-3-3-----------------------------------------------------------|
E|-1-1-1-1-1-1-1-1-----------------------------------------------------------|
When you were here with me

e|---------------------------------------------------------------------------|
B|---------------------------------------------------------------------------|
G|-7-7-7-7-7-7-7-7-5-5-5-5-5-5-5-5-------------------------------------------|
D|-7-7-7-7-7-7-7-7-5-5-5-5-5-5-5-5-------------------------------------------|
A|-5-5-5-5-5-5-5-5-3-3-3-3-3-3-3-3-------------------------------------------|
E|---------------------------------------------------------------------------|
I'm all over the place on a scale of 1 to 10


e|---------------------------------------------------------------------------|
B|---------------------------------------------------------------------------|
G|-3-3-3-3-3-3-3-3-----------------------------------------------------------|
D|-3-3-3-3-3-3-3-3-----------------------------------------------------------|
A|-1-1-1-1-1-1-1-1-----------------------------------------------------------|
E|---------------------------------------------------------------------------|
I'm a C, that's me

e|---------------------------------------------------------------------------|
B|---------------------------------------------------------------------------|
G|---------------------------------------------------------------------------|
D|-3~------------------------------------------------------------------------|
A|-3~------------------------------------------------------------------------|
E|-1~------------------------------------------------------------------------|
 I'm not lost, I just haven't found everything I need

e|---------------------------------------------------------------------------|
B|---------------------------------------------------------------------------|
G|-3~------------------------------------------------------------------------|
D|-3~------------------------------------------------------------------------|
A|-1~------------------------------------------------------------------------|
E|---------------------------------------------------------------------------|
I'm not torn, I'm just getting it together

CHORUS
e|---------------------------------------------------------------------------|
B|---------------------------------------------------------------------------|
G|---------------------------------------------------------------------------|
D|-3-3-3-3-3-3-3-3-----------------------------------------------------------|
A|-3-3-3-3-3-3-3-3-----------------------------------------------------------|
E|-1-1-1-1-1-1-1-1-----------------------------------------------------------|
I'm a circle incomplete

e|---------------------------------------------------------------------------|
B|---------------------------------------------------------------------------|
G|-3-3-3-3-3-3-3-3-----------------------------------------------------------|
D|-3-3-3-3-3-3-3-3-----------------------------------------------------------|
A|-1-1-1-1-1-1-1-1-----------------------------------------------------------|
E|---------------------------------------------------------------------------|
I'm a heart that barely beats

e|---------------------------------------------------------------------------|
B|---------------------------------------------------------------------------|
G|-7-7-7-7-7-7-7-7-5-5-5-5-5-5-5-5-------------------------------------------|
D|-7-7-7-7-7-7-7-7-5-5-5-5-5-5-5-5-------------------------------------------|
A|-5-5-5-5-5-5-5-5-3-3-3-3-3-3-3-3-------------------------------------------|
E|---------------------------------------------------------------------------|
All the memories stay forever like tattoos

e|---------------------------------------------------------------------------|
B|---------------------------------------------------------------------------|
G|---------------------------------------------------------------------------|
D|-3-3-3-3-3-3-3-3-----------------------------------------------------------|
A|-3-3-3-3-3-3-3-3-----------------------------------------------------------|
E|-1-1-1-1-1-1-1-1-----------------------------------------------------------|
I'm a star without a sky

e|---------------------------------------------------------------------------|
B|---------------------------------------------------------------------------|
G|-3-3-3-3-3-3-3-3-----------------------------------------------------------|
D|-3-3-3-3-3-3-3-3-----------------------------------------------------------|
A|-1-1-1-1-1-1-1-1-----------------------------------------------------------|
E|---------------------------------------------------------------------------|
I'm hello with no goodbye

e|---------------------------------------------------------------------------|
B|---------------------------------------------------------------------------|
G|------------------5-5-5-5-5-5-5-5------------------------------------------|
D|-5-5-5-5-5-5-5-5--5-5-5-5-5-5-5-5------------------------------------------|
A|-5-5-5-5-5-5-5-5--3-3-3-3-3-3-3-3------------------------------------------|
E|-3-3-3-3-3-3-3-3-----------------------------------------------------------|
I'm the dreams we had that never will come true, that's me with no...

e|---------------------------------------------------------------------------|
B|---------------------------------------------------------------------------|
G|-----------------3-3-3-3-3-3-3-3-----------------3-3-3-3-3-3-3-3-----------|
D|-3-3-3-3-3-3-3-3-3-3-3-3-3-3-3-3-3-3-3-3-3-3-3-3-3-3-3-3-3-3-3-3-----------|
A|-3-3-3-3-3-3-3-3-1-1-1-1-1-1-1-1-3-3-3-3-3-3-3-3-1-1-1-1-1-1-1-1-----------|
E|-1-1-1-1-1-1-1-1-----------------1-1-1-1-1-1-1-1---------------------------|
...you

e|---------------------------------------------------------------------------|
B|---------------------------------------------------------------------------|
G|-----------------3-3-3-3-3-3-3-3-----------------3-3-3-3-3-3-3-3-----------|
D|-3-3-3-3-3-3-3-3-3-3-3-3-3-3-3-3-3-3-3-3-3-3-3-3-3-3-3-3-3-3-3-3-----------|
A|-3-3-3-3-3-3-3-3-1-1-1-1-1-1-1-1-3-3-3-3-3-3-3-3-1-1-1-1-1-1-1-1-----------|
E|-1-1-1-1-1-1-1-1-----------------1-1-1-1-1-1-1-1---------------------------|

e|---------------------------------------------------------------------------|
B|---------------------------------------------------------------------------|
G|-3~-------3~-------5~------------------------------------------------------|
D|-3~-------3~-------5~-------3~---------------------------------------------|
A|-1~-------1~-------3~-------3~---------------------------------------------|
E|----------------------------1~---------------------------------------------|



************************************

| /   slide up
| \   slide down
| h   hammer-on
| p   pull-off
| ~   hold
| +   harmonic
| x   Mute note
| b   Bend
| pb  Pre-bend
| br  Bend release
| pbr Pre-bend release
| brb Bend release bend

************************************
Tap to rate this tab
 
# A B C D E F G H I J K L M N O P Q R S T U V W X Y Z