Bowling For Soup - Scope tab

Intro
e|--------|
B|--------|
G|--------|
D|-2-7-9--|  2x
A|-2-7-9--|
E|-0-5-7--|

verse
e|-------------|
B|-------------|
G|-------------|  6x
D|-2222-77-99--|
A|-2222-77-99--|
E|-0000-55-77--|

e|------------------------------------------------------|
B|------------------------------------------------------|
G|------------------------------------------------------|  
D|--77-99-3x--22222222--77-99-77-99-77777777-99999999---|
A|--77-99-----22222222--77-99-77-99-77777777-99999999---|
E|--55-77-----00000000--55-77-55-77-55555555-77779999---|
                                    Pm---------------
Chorus
e|---------------------------------------------|
B|---------------------------------------------|
G|--9999----------------9999-------------------| 
D|--9999-9999-7777-4444-9999-7777-99999999-----| 2x
A|--7777-9999-7777-4444-7777-7777-99999999-----|
E|-------7777-5555-2222------5555-77777777-----|

Intro 2x

verse

chorus 2x

bridge
e|--------------------------------|
B|--------------------------------|
G|--5---------------7-----55-----5|  
D|--5-55-77-777777--7--55-55-55--5|  2x
A|--3-55-77-777777--5--55-33-55--3|
E|----33-55-555555-----33----33---|
            .......
e|-----------------------------------|
B|-----------------------------------|
G|--5--------------------------------|  
D|--5-55-77777777-99999999-77777777-9|  
A|--3-55-77777777-99999999-77777777-9|
E|----33-55555555-77777777-55555555-7|
         ........ ........ ........ .

Chorus 4x

outro
e|-----------------------|
B|-----------------------|
G|-----------------------|  
D|--2222-77-99-2222------|  
A|--2222-77-99-2222------|
E|--0000-55-99-0000------|

Tap to rate this tab
 
# A B C D E F G H I J K L M N O P Q R S T U V W X Y Z