Bowling For Soup - S-s-s-saturday tab

This is my first tab so yeah... hope it's not completely crap...
Oh yeah and I'm fairly lazy so the quality will be about
as good as I can make it with absolutely no effort...
And now I say oh this is a great song... I didn't see a tab
So I made one... I hope you like it...
Wow I really like ellipsises...


Song: S-s-s-saturday
Artist: Bowling For Soup
Album: Fishing For Woos
Year: 2011




     Intro/Verse Guitar 1
e|---------------------------------------------------------------------------|
B|---------------------------------------------------------------------------|
G|----7-7-7-7-2-2-2-2-0-0-4-4-2-2-2-2-0-0-4-4-2-2----------------------------|
D|----0-0-0-0-0-0-0-0-0-0-0-0-0-0-0-0-0-0-0-0-0-0-4-4-2-2-2-2-2-2-2-2--------|
A|----------------------------------------------------0-0-0-0-0-0-0-0--------|
E|---------------------------------------------------------------------------|
Mute: * * * * * * * * * * * * * * * * * * * * * * * * * * * * * * * *

Intro Guitar 2
(Played Under The Mute Riff)
e|---------------------------------------------------------------------------|
B|---------------------------------------------------------------------------|
G|----7-7-7-7-7-7-7-7-7-7-7-7-7-7-7-7-7-7-7-7-7-7-7-7------------------------|
D|----7-7-7-7-7-7-7-7-7-7-7-7-7-7-7-7-7-7-7-7-7-7-7-7-7-7-7-7-7-7-7-7--------|
A|----5-5-5-5-5-5-5-5-5-5-5-5-5-5-5-5-5-5-5-5-5-5-5-5-7-7-7-7-7-7-7-7--------|
E|----------------------------------------------------5-5-5-5-5-5-5-5--------|
Mute: * * * * * * * * * * * * * * * * * * * * * * * * * * * * * * * *

     Verse Guitar 2
(Played Under The Mute Riff)
e|---------------------------------------------------------------------------|
B|---------------------------------------------------------------------------|
G|----7-7-7-7-7-7-7-7-7-7-7-7-7-7-7-7-7-7-7-7-7-7-7-7------------------------|
D|----7-7-7-7-7-7-7-7-7-7-7-7-7-7-7-7-7-7-7-7-7-7-7-7-7-7-7-7-5-5-5-5--------|
A|----5-5-5-5-5-5-5-5-5-5-5-5-5-5-5-5-5-5-5-5-5-5-5-5-7-7-7-7-5-5-5-5--------|
E|----------------------------------------------------5-5-5-5-3-3-3-3--------|
Mute: * * * * * * * * * * * * * * * * * * * * * * * * * * * * * * * *

Pre-Chorus
(Listen For Strumming Patterns Since I'm Lazy)
e|---------------------------------------------------------------------------|
B|---------------------------------------------------------------------------|
G|----4-4-4-4-4-4-4-4--------------------------------------------------------|
D|----4-4-4-4-4-4-4-4-2-2-2-2-2-2-2-2-5-5-5-5-5-5-5-5-7-7-7-7-7-7-7-7--------|
A|----2-2-2-2-2-2-2-2-2-2-2-2-2-2-2-2-5-5-5-5-5-5-5-5-7-7-7-7-7-7-7-7--------|
E|--------------------0-0-0-0-0-0-0-0-3-3-3-3-3-3-3-3-5-5-5-5-5-5-5-5--------|

Chorus Part 1


e|---------------------------------------------------------------------------|
B|---------------------------------------------------------------------------|
G|----7-7-7-7-7-7-7-7--------------------------------------------------------|     X3
D|----7-7-7-7-7-7-7-7-7-7-7-7-5-5-5-5----------------------------------------|
A|----5-5-5-5-5-5-5-5-7-7-7-7-5-5-5-5----------------------------------------|
E|--------------------5-5-5-5-3-3-3-3----------------------------------------|

Chorus Part 2


e|---------------------------------------------------------------------------|
B|---------------------------------------------------------------------------|
G|---------------------------------------------------------------------------|
D|----9-9-9-9-9-9-9-9-7-7-7-7-7-7-7-7-5-5-5-5-5-5-5-5-5----------------------|
A|----9-9-9-9-9-9-9-9-7-7-7-7-7-7-7-7-5-5-5-5-5-5-5-5-5----------------------|
E|----7-7-7-7-7-7-7-7-5-5-5-5-5-5-5-5-3-3-3-3-3-3-3-3-3----------------------|
The note at the end is short one single choruses but the chord is continued when going 
into a second chorus

Bridge


e|---------------------------------------------------------------------------|
B|---------------------------------------------------------------------------|
G|---------------------------------------------------------------------------|
D|----2-2-2-2-2-2-2-2-7-7-7-7-7-7-7-7-2-2-2-2-2-2-2-2-7-7-7-7-7-7-7-7--------|
A|----2-2-2-2-2-2-2-2-7-7-7-7-7-7-7-7-2-2-2-2-2-2-2-2-7-7-7-7-7-7-7-7--------|
E|----0-0-0-0-0-0-0-0-5-5-5-5-5-5-5-5-0-0-0-0-0-0-0-0-5-5-5-5-5-5-5-5--------|



e|---------------------------------------------------------------------------|
B|---------------------------------------------------------------------------|
G|---------------------------------------------------------------------------|
D|----2-2-2-2-2-2-2-2-7-7-7-7-7-7-7-7-5-5-5-5-5-5-5-5-5~~~~~-----------------|
A|----2-2-2-2-2-2-2-2-7-7-7-7-7-7-7-7-5-5-5-5-5-5-5-5-5~~~~~-----------------|
E|----0-0-0-0-0-0-0-0-5-5-5-5-5-5-5-5-3-3-3-3-3-3-3-3-3~~~~~-----------------|
Mute:                                 * * * * * * * *


Song Order:
Intro/Verse Guitar 1 X6 During: Intro Guitar 2 X4
                                Verse Guitar 2 X2
Pre-Chorus X1
Chorus X1
Intro X1 (Both Parts)
Verse x2 (Both Parts)
Pre-Chorus X1
Chorus X1
Bridge X1
Group Vocals (No Playing)
Chorus X2
Intro X2  (I suppose this should be called the outro but I'm not motivated enough to 
change it)




************************************

| /   slide up
| \   slide down
| h   hammer-on
| p   pull-off
| ~   vibrato
| +   harmonic
| x   Mute note
| b   Bend
| pb  Pre-bend
| br  Bend release
| pbr Pre-bend release
| brb Bend release bend

************************************
Tap to rate this tab
 
# A B C D E F G H I J K L M N O P Q R S T U V W X Y Z