Bowling For Soup - Smiley Face Its All Good tab

-----------------------------------------------------------------------------
		 Smiley Face Its All Good - Bowling For Soup
-----------------------------------------------------------------------------
Tabbed by: rocky2476 (jeremy v)
Email: rocky2476@aim.com

Tuning: standard
intro (palm muted)
   B               G#/B           B            G#/B
e|--------------------------------------------------------------|
B|--------------------------------------------------------------|
G|--------------------------------------------------------------|
D|------4------4-------4------4-------4-----4-------4-----------|
A|--2-2---2--2---2----------------2-2---2-2---2-----------------|
E|-----------------4-4---4--4---4---------------4-4---4--4-2-4--|

make me somethin out of nothin...
   B               G#/B           B            G#/B           C#           
e|------------------------------------------------------------------------------|
B|------------------------------------------------------------------------------|
G|----------------------------------------------------------------------------9-|
D|------4------4-------4------4-------4-----4-------4-------------------------9-| repeat
A|--2-2---2--2---2----------------2-2---2-2---2----------------4-4-4-4-4-2-4-s7-|
E|-----------------4-4---4--4---4---------------4-4---4--4-2-4------------------|

and play this on top...
e|-------2----------2---------|
B|--0-------0----------0------|
G|-------------1--------------|
D|----------------------------|
A|----------------------------|
E|----------------------------|

bridge
    C#              F# 
e|-----------------------------------|
B|-----------------------------------|
G|--6-6-6-6-6-6-6-6------------------|
D|--6-6-6-6-6-6-6-6-4-4-4-4-4-4-4-4--|
A|--4-4-4-4-4-4-4-4-4-4-4-4-4-4-4-4--|
E|------------------2-2-2-2-2-2-2-2--|
    
chorus
    B               G#              C#              E
e|---------------------------------------------------------------------|
B|---------------------------------------------------------------------|
G|--4-4-4-4-4-4-4-4-----------------6-6-6-6-6-6-6-6-9-9-9-9-9-9-9-9-9--|
D|--4-4-4-4-4-4-4-4-6-6-6-6-6-6-6-6-6-6-6-6-6-6-6-6-9-9-9-9-9-9-9-9-9--|
A|--2-2-2-2-2-2-2-2-6-6-6-6-6-6-6-6-4-4-4-4-4-4-4-4-7-7-7-7-7-7-7-7-7--|
E|------------------4-4-4-4-4-4-4-4------------------------------------|




************************************

| /   slide up
| \   slide down
| h   hammer-on
| p   pull-off
| ~   vibrato
| +   harmonic
| x   Mute note
| b   Bend
| pb  Pre-bend
| br  Bend release
| pbr Pre-bend release
| brb Bend release bend

************************************
Tap to rate this tab
 
# A B C D E F G H I J K L M N O P Q R S T U V W X Y Z