Bowling For Soup - My Girlfriend Is An Alcoholic tab

Song: My Girlfriend Is An Alcoholic
Artist: Bowling For Soup
Album: Fishin' For Woos
Year: 2011


Excellent song... which is expected from Bowling For Soup...
But that's another topic... so here's the tab...


Verse:

e|---------------------------------------------------------------------------|
B|---------------------------------------------------------------------------|
G|----8-8-8-8-8-8-8-8-4-4-4-4-4-4-4-4-----------------6-6-6-6-6-6-6-6--------|
D|----8-8-8-8-8-8-8-8-4-4-4-4-4-4-4-4-4-4-4-4-4-4-4-4-6-6-6-6-6-6-6-6--------|
A|----6-6-6-6-6-6-6-6-2-2-2-2-2-2-2-2-4-4-4-4-4-4-4-4-4-4-4-4-4-4-4-4--------|
E|------------------------------------2-2-2-2-2-2-2-2------------------------|
Mute: * * * * * * * * * * * * * * * * * * * * * * * * * * * * * * * * 


Pre-Chorus:

e|---------------------------------------------------------------------------|
B|---------------------------------------------------------------------------|
G|----4-4-4-4-4-4-4-4-4-4-4-4-4-4-4-4-6-6-6-6-6------------------------------|
D|----4-4-4-4-4-4-4-4-4-4-4-4-4-4-4-4-6-6-6-6-6------------------------------|
A|----2-2-2-2-2-2-2-2-2-2-2-2-2-2-2-2-4-4-4-4-4------------------------------|
E|---------------------------------------------------------------------------|
Mute: * * * * * * * *



Chorus:

e|---------------------------------------------------------------------------|
B|---------------------------------------------------------------------------|
G|----------6-6---8-8---4-4--------------------------------------------------|     x4
D|----4-4---6-6---8-8---4-4--------------------------------------------------|
A|----4-4---4-4---6-6---2-2--------------------------------------------------|
E|----2-2--------------------------------------------------------------------|

e|---------------------------------------------------------------------------|
B|---------------------------------------------------------------------------|
G|------------6---6---8---8---4---4------------------------------------------|
D|----4---4---6---6---8---8---4---4------------------------------------------|
A|----4---4---4---4---6---6---2---2------------------------------------------|
E|----2---2------------------------------------------------------------------|

e|---------------------------------------------------------------------------|
B|---------------------------------------------------------------------------|
G|----------6-6---8-8---4-4---------6-6---8-8---7-7--------------------------|     
D|----4-4---6-6---8-8---4-4---4-4---6-6---8-8---7-7--------------------------|
A|----4-4---4-4---6-6---2-2---4-4---4-4---6-6---5-5--------------------------|
E|----2-2---------------------2-2--------------------------------------------|


Pre-Bridge:

e|---------------------------------------------------------------------------|
B|---------------------------------------------------------------------------|
G|----4-4-4-4-4-4-3----------------------------------------------------------|
D|----4-4-4-4-4-4-3-6-4------------------------------------------------------|
A|----2-2-2-2-2-2-1-6-4------------------------------------------------------|
E|------------------4-2------------------------------------------------------|


Bridge:(For each chord pick the strings from low to high for the whole chord or 
just hold the power chords...)

e|---------------------------------------------------------------------------|
B|---------------------------------------------------------------------------|
G|----8------7------6-------5------4------3----------------------------------|
D|----8------7------6-------5------4------3------6---------------------------|
A|----6------5------4-------3------2------1------6---------------------------|
E|-----------------------------------------------4---------------------------|


Solo:  (I'm pretty sure this is right but not positive)

e|----2---1---2---2---6---4---6---6/7---9---9---9---9/11----2-2-2-2-1-1-1-1-------------------|
B|--------------------------------------------------------------------------4-4-4-4-4-4-4-4---|
G|--------------------------------------------------------------------------------------------|
D|--------------------------------------------------------------------------------------------|
A|--------------------------------------------------------------------------------------------|
E|--------------------------------------------------------------------------------------------|

Solo Riff:

e|---------------------------------------------------------------------------|
B|---------------------------------------------------------------------------|
G|----------6-6---8-8---4-4--------------------------------------------------|     
D|----4-4---6-6---8-8---4-4--------------------------------------------------|
A|----4-4---4-4---6-6---2-2--------------------------------------------------|
E|----2-2--------------------------------------------------------------------|

Order:
Verse x3
Pre-Chorus x1
Chorus x1
Verse x2
Pre-Chorus x1
Chorus x1
Pre-Bridge x1
Bridge x1
Solo x1  with Solo Riff x4
Chorus x1
Tap to rate this tab
 
# A B C D E F G H I J K L M N O P Q R S T U V W X Y Z