Bowling For Soup - Dear Megan Fox tab

Song: Dear Megan Fox
Artist: Bowling For Soup
Album: Fishin' For Woos
Year: 2011

Fairly easy song... I'm fairly certain this is right...
Excellent song... so yeah enjoy the tab...(If it's right...)


Verse:

e|---------------------------------------------------------------------------|
B|---------------------------------------------------------------------------|
G|--------7-------7-------7--------------------------------------------------|
D|---------------------------------------------------------------------------|
A|----5-------5-5-----5-----5------------------------------------------------|
E|------------------------------5-7-5----------------------------------------|


Pre-Chorus

e|---------------------------------------------------------------------------|
B|---------------------------------------------------------------------------|
G|----------------------------------------------------7-7-7-7-7-7-7-7--------|
D|----5-5-5-5-5-5-5-5-7-7-7-7-7-7-7-7-9-9-9-9-9-9-9-9-7-7-7-7-7-7-7-7--------|
A|----5-5-5-5-5-5-5-5-7-7-7-7-7-7-7-7-9-9-9-9-9-9-9-9-5-5-5-5-5-5-5-5--------|
E|----3-3-3-3-3-3-3-3-5-5-5-5-5-5-5-5-7-7-7-7-7-7-7-7------------------------|

e|---------------------------------------------------------------------------|
B|---------------------------------------------------------------------------|
G|---------------------------------------------------------------------------|
D|----5-5-5-5-5-5-5-5-7-7-7-7-7-7-7-7-7-7-7-7-7-7-7-7------------------------|
A|----5-5-5-5-5-5-5-5-7-7-7-7-7-7-7-7-7-7-7-7-7-7-7-7------------------------|
E|----3-3-3-3-3-3-3-3-5-5-5-5-5-5-5-5-5-5-5-5-5-5-5-5------------------------|
Mute:                 * * * * * * * * * * * * * * * * 


Chorus:

e|---------------------------------------------------------------------------|
B|---------------------------------------------------------------------------|
G|----7-7-7-7-7-7-7-7--------------------------------------------------------|     x2
D|----7-7-7-7-7-7-7-7-7-7-7-7-7-7-7-7-9-9-9-9-9-9-9-9-5-5-5-5-5-5-5-5--------|
A|----5-5-5-5-5-5-5-5-7-7-7-7-7-7-7-7-9-9-9-9-9-9-9-9-5-5-5-5-5-5-5-5--------|
E|--------------------5-5-5-5-5-5-5-5-7-7-7-7-7-7-7-7-3-3-3-3-3-3-3-3--------|

e|---------------------------------------------------------------------------|
B|---------------------------------------------------------------------------|
G|------------------------------------7-7-7-7-7-7-7-7-6-6-6-6-6-6-6-6--------|
D|----9-9-9-9-9-9-9-9-5-5-5-5-5-5-5-5-7-7-7-7-7-7-7-7-6-6-6-6-6-6-6-6--------|
A|----9-9-9-9-9-9-9-9-5-5-5-5-5-5-5-5-5-5-5-5-5-5-5-5-4-4-4-4-4-4-4-4--------|
E|----7-7-7-7-7-7-7-7-3-3-3-3-3-3-3-3----------------------------------------|

e|---------------------------------------------------------------------------|
B|---------------------------------------------------------------------------|
G|---------------------------------------------------------------------------|
D|----5-5-5-5-5-5-5-5-5-5-5-5-5-5-5-5-7-7-7-7-7-7-7-7-7----------------------|
A|----5-5-5-5-5-5-5-5-5-5-5-5-5-5-5-5-7-7-7-7-7-7-7-7-7----------------------|
E|----3-3-3-3-3-3-3-3-3-3-3-3-3-3-3-3-5-5-5-5-5-5-5-5-5----------------------|
Mute: * * * * * * * * * * * * * * * * * * * * 


Bridge:

e|---------------------------------------------------------------------------|
B|---------------------------------------------------------------------------|
G|------------------------------------7-7-7-7-7-7-7-7------------------------|
D|----9-9-9-9-9-9-9-9-5-5-5-5-5-5-5-5-7-7-7-7-7-7-7-7-7-7-7-7-8-8-8-8--------|
A|----9-9-9-9-9-9-9-9-5-5-5-5-5-5-5-5-5-5-5-5-5-5-5-5-7-7-7-7-8-8-8-8--------|
E|----7-7-7-7-7-7-7-7-3-3-3-3-3-3-3-3-----------------5-5-5-5-6-6-6-6--------|

e|---------------------------------------------------------------------------|
B|---------------------------------------------------------------------------|
G|---------------------------------------------------------------------------|
D|----9-9-9-9-9-9-9-9-5-5-5-5-5-5-5-5-2-2-2-2-2-2-2-2-7----------------------|
A|----9-9-9-9-9-9-9-9-5-5-5-5-5-5-5-5-2-2-2-2-2-2-2-2-7----------------------|
E|----7-7-7-7-7-7-7-7-3-3-3-3-3-3-3-3-0-0-0-0-0-0-0-0-5----------------------|


Final Pre-Chorus:

e|---------------------------------------------------------------------------|
B|---------------------------------------------------------------------------|
G|----------------------------------------------------7----------------------|
D|----5---------------7---------------9---------------7----------------------|
A|----5---------------7---------------9---------------5----------------------|
E|----3---------------5---------------7--------------------------------------|

e|---------------------------------------------------------------------------|
B|---------------------------------------------------------------------------|
G|---------------------------------------------------------------------------|
D|----5---------------7-7-7-7-7-7-7-7-7-7-7-7-7-7-7-7-7-7-7-7-7-7-7-7-7------|
A|----5---------------7-7-7-7-7-7-7-7-7-7-7-7-7-7-7-7-7-7-7-7-7-7-7-7-7------|
E|----3---------------5-5-5-5-5-5-5-5-5-5-5-5-5-5-5-5-5-5-5-5-5-5-5-5-5------|
Mute:                 * * * * * * * * * * * * * * * * * * * * * * * * 


Final Chorus:

e|---------------------------------------------------------------------------|
B|---------------------------------------------------------------------------|
G|----7-7-7-7-7-7-7-7--------------------------------------------------------|     x2
D|----7-7-7-7-7-7-7-7-7-7-7-7-7-7-7-7-9-9-9-9-9-9-9-9-5-5-5-5-5-5-5-5--------|
A|----5-5-5-5-5-5-5-5-7-7-7-7-7-7-7-7-9-9-9-9-9-9-9-9-5-5-5-5-5-5-5-5--------|
E|--------------------5-5-5-5-5-5-5-5-7-7-7-7-7-7-7-7-3-3-3-3-3-3-3-3--------|

e|---------------------------------------------------------------------------|
B|---------------------------------------------------------------------------|
G|------------------------------------7-7-7-7-7-7-7-7-6-6-6-6-6-6-6-6--------|
D|----9-9-9-9-9-9-9-9-5-5-5-5-5-5-5-5-7-7-7-7-7-7-7-7-6-6-6-6-6-6-6-6--------|
A|----9-9-9-9-9-9-9-9-5-5-5-5-5-5-5-5-5-5-5-5-5-5-5-5-4-4-4-4-4-4-4-4--------|
E|----7-7-7-7-7-7-7-7-3-3-3-3-3-3-3-3----------------------------------------|

e|---------------------------------------------------------------------------|
B|---------------------------------------------------------------------------|
G|---------------------------------------------------------------------------|
D|----5-5-5-5-5-5-5-5-5-5-5-5-5-5-5-5-7-7-7-7-7-7-7-7-7-7-7-7-7-7-7-7--------|
A|----5-5-5-5-5-5-5-5-5-5-5-5-5-5-5-5-7-7-7-7-7-7-7-7-7-7-7-7-7-7-7-7--------|
E|----3-3-3-3-3-3-3-3-3-3-3-3-3-3-3-3-5-5-5-5-5-5-5-5-5-5-5-5-5-5-5-5--------|
Mute: * * * * * * * * * * * * * * * * * * * * * * * * * * * * * * * * 


e|---------------------------------------------------------------------------|
B|---------------------------------------------------------------------------|
G|---------------------------------------------------------------------------|
D|----5-5-5-5-5-5-5-5-5-5-5-5-5-5-5-5-7-7-7-7-7-7-7-7-7----------------------|
A|----5-5-5-5-5-5-5-5-5-5-5-5-5-5-5-5-7-7-7-7-7-7-7-7-7----------------------|
E|----3-3-3-3-3-3-3-3-3-3-3-3-3-3-3-3-5-5-5-5-5-5-5-5-5----------------------|
Mute: * * * * * * * * * * * * * * * * * * * * 


Order:
Verse x10
Pre-Chorus x1
Chorus x1
Verse x5
Pre-Chorus x1
Chorus x1
(Pickslide)
Bridge x1
Final Pre-Chorus x1
Final Chorus x1
Tap to rate this tab
 
# A B C D E F G H I J K L M N O P Q R S T U V W X Y Z