Song name
# A B C D E F G H I J K L M N O P Q R S T U V W X Y Z

Bowling For Soup - What About Us Acoustic tab

-------------------------------------------------------------------------------
			     WHAT ABOUT US [Acoustic] - Bowling For Soup
-------------------------------------------------------------------------------
Tabbed by: Nicole Hodson
Email: neekatodd@hotmail.com

Tuning: Standard

INTRO/VERSE
e|--------------------------------------|
B|--------------------------------------|
G|--------------------------------------|
D|-2222222-333-2~222-333-2~223-5555-555-| x3
A|-3333333-333-3~333-333-3~333-5555-555-|
E|--------------------------------------|
Verse starts on 2nd time.


PRECHORUS
e|-1------3----|        e|-1------3~---|
B|-1------3----|        B|-1------3~---|
G|-2------4----|        G|-2------4~---|
D|-3------5----| x3     D|-3------5~---|            
A|-3-x6---5-x6-|        A|-3-x6---5~---|
E|-1------3----|        E|-1------3~---|


CHORUS
Strumming pattern (each chord):  d dud
e|--------3~333---------1~111-|
B|-1~111--3~333--1~111--1~111-|
G|-0~000--0~000--2~222--2~222-|
D|-2~222--0~000--2~222--3~333-|
A|-3~333--2~222---------3~333-|
E|--------3~333---------1~111-|

e|--------3~333---------1~111-|
B|-1~111--3~333--1~111--1~111-|
G|-0~000--0~000--2~222--2~222-|
D|-2~222--0~000--2~222--3~333-| 
A|-3~333--2~222---------3~333-|
E|--------3~333---------1~111-|

e|--------3~333---------2~----|
B|-1~111--3~333--1~111--3~----|
G|-0~000--0~000--2~222--2~----|
D|-2~222--0~000--2~222--------| 
A|-3~333--2~222---------------|
E|--------3~333---------------|

e|-1~-----3~---|
B|-1~-----3~---|
G|-2~-----4~---|
D|-3~-----5~---|
A|-3~-----5~---|
E|-1~-----3~---|


VERSE 2
e|--------------------------------------|
B|--------------------------------------|
G|--------------------------------------|
D|-2222222-333-2~222-333-2~223-5555-555-| x3
A|-3333333-333-3~333-333-3~333-5555-555-|
E|--------------------------------------|
Verse starts on 2nd time.


PRECHORUS
e|-1------3----|        e|-1------3~---|
B|-1------3----|        B|-1------3~---|
G|-2------4----|        G|-2------4~---|
D|-3------5----| x3     D|-3------5~---|            
A|-3-x6---5-x6-|        A|-3-x6---5~---|
E|-1------3----|        E|-1------3~---|


CHORUS
e|--------3~333---------1~111-|
B|-1~111--3~333--1~111--1~111-|
G|-0~000--0~000--2~222--2~222-|
D|-2~222--0~000--2~222--3~333-|
A|-3~333--2~222---------3~333-|
E|--------3~333---------1~111-|

e|--------3~333---------1~111-|
B|-1~111--3~333--1~111--1~111-|
G|-0~000--0~000--2~222--2~222-|
D|-2~222--0~000--2~222--3~333-| 
A|-3~333--2~222---------3~333-|
E|--------3~333---------1~111-|

e|--------3~333---------2~----|
B|-1~111--3~333--1~111--3~----|
G|-0~000--0~000--2~222--2~----|
D|-2~222--0~000--2~222--------| 
A|-3~333--2~222---------------|
E|--------3~333---------------|

e|-1~-----3~---|
B|-1~-----3~---|
G|-2~-----4~---|
D|-3~-----5~---|
A|-3~-----5~---|
E|-1~-----3~---|


BRIDGE
e|-3-----2---------------1~1111-1~111--3~3333-3~333--4-|
B|-3-----2-1~1111-1~111--1~1111-1~111--4~4444-3~333--4-|
G|-5-----4-2~2222-2~222--2~2222-2~222--5~5555-4~444--5-|
D|-5-x8--4-2~2222-2~222--3~3333-3~333--5~5555-5~555--6-|
A|-3-----2---------------3~3333-3~333--3~3333-5~555--6-|
E|-----------------------1~1111-1~111---------3~333--4-|

e|---------------1~1111-1~111--3-3-3-3-3--3~--|
B|-1~1111-1~111--1~1111-1~111--4-4-4-4-4--3~--|
G|-2~2222-2~222--2~2222-2~222--5-5-5-5-5--4~--|
D|-2~2222-2~222--3~3333-3~333--5-5-5-5-5--5~--|
A|---------------3~3333-3~333--3-3-3-3-3--5~--|
E|---------------1~1111-1~111-------------3~--|

e|-1~-----3~---|
B|-1~-----3~---|
G|-2~-----4~---|
D|-3~-----5~---|
A|-3~-----5~---|
E|-1~-----3~---|


CHORUS
e|--------3~333---------1~111-|
B|-1~111--3~333--1~111--1~111-|
G|-0~000--0~000--2~222--2~222-|
D|-2~222--0~000--2~222--3~333-|
A|-3~333--2~222---------3~333-|
E|--------3~333---------1~111-|

e|--------3~333---------1~111-|
B|-1~111--3~333--1~111--1~111-|
G|-0~000--0~000--2~222--2~222-|
D|-2~222--0~000--2~222--3~333-| 
A|-3~333--2~222---------3~333-|
E|--------3~333---------1~111-|

e|--------3~333---------2~----|
B|-1~111--3~333--1~111--3~----|
G|-0~000--0~000--2~222--2~----|
D|-2~222--0~000--2~222--------| 
A|-3~333--2~222---------------|
E|--------3~333---------------|

e|-1~1111--3~3333---|
B|-1~1111--3~3333---|
G|-2~2222--4~4444---|
D|-3~3333--5~5555---|
A|-3~3333--5~5555---|
E|-1~1111--3~3333---|

e|--------3~333---------1~111-|
B|-1~111--3~333--1~111--1~111-|
G|-0~000--0~000--2~222--2~222-|
D|-2~222--0~000--2~222--3~333-|
A|-3~333--2~222---------3~333-|
E|--------3~333---------1~111-|

e|--------3~333---------1~111-|
B|-1~111--3~333--1~111--1~111-|
G|-0~000--0~000--2~222--2~222-|
D|-2~222--0~000--2~222--3~333-| 
A|-3~333--2~222---------3~333-|
E|--------3~333---------1~111-|

e|--------3~333---------2~----|
B|-1~111--3~333--1~111--3~----|
G|-0~000--0~000--2~222--2~----|
D|-2~222--0~000--2~222--------| 
A|-3~333--2~222---------------|
E|--------3~333---------------|


e|-1~-----3~-----3~-|
B|-1~-----3~-----4~-|
G|-2~-----4~-----5~-|
D|-3~-----5~-----5~-|
A|-3~-----5~-----3~-|
E|-1~-----3~--------|



Not entirely sure about the D in the chorus, but otherwise I think it's pretty close!

************************************

| /   slide up
| \   slide down
| h   hammer-on
| p   pull-off
| ~   let ring
| +   harmonic
| x   Mute note
| b   Bend

************************************
Tap to rate this tab
 
# A B C D E F G H I J K L M N O P Q R S T U V W X Y Z