Song name
# A B C D E F G H I J K L M N O P Q R S T U V W X Y Z

Bowling For Soup - Heres Your Freakin Song tab

Just saw it wasn't on here so here's my shot

Intro:
E------2--------------------------------------|
B---------------------------------------------|
G--4------------------------------------------|
D--4---------------2--------------------------|
A--2---------------2-(x16)--------------------|
E------------------0--------------------------|
P.m.               .

Intro pt.2/ chorus
---------------------------------------------|
---------------------------------------------|
---------------------------6---4----8-8/9----|
--2----6---7------6---4----6---4----8-8/9----|
--2----6---7------6---4----4---2----6-6/7----|
--0----4---5------4---2----------------------|

Verse is just the chorus with palmuting minus the C# chord

Pre-chorus
---------------------------------------------|
---------------------------------------------|
---------------------------------------------|
-2---4-----2---6---------6-------------------|
-2---4-----2---6---------6-x16---------------|
-0---2-----0---4---------4-------------------|
P.m. gradually release  .............

Chrous

Post-chorus
----------------------------------------------|
------------------------4--4------------------|
------------------------4--4------------------|
-2-----4-----6----4-----2--2---2--------------|
-2-x8--4-x8--6-x8-4-x8---------2x16-----------|
-0-----2-----4----2------------0--------------|
                               .
Bridge
-------------------------------------------|
-------------------------------------------|
-------------------------------------------|
-7---2---7---11--11/9----------------------|
-7x4-2x4-7x4-11--11/9x2--------------------|
-5---0---5---9----9/7----------------------|repeat twice up to C#, 2nd time do

----------------|
----------------|
9---------------|
9x16------------|
7---------------|
. gradually release.

For rhythm that's about it, which is all I play since I sing too. Can't help you much more
Tap to rate this tab
 
# A B C D E F G H I J K L M N O P Q R S T U V W X Y Z