Bowling For Soup - Smiley Face Its All Good tab

Song: Smiley Face (It's All Good)
Artist: Bowling For Soup
Album: Fishin' For Woos
Year: 2011

Hey this is my second tab... Good song...
This is as correct as I'm willing to make it...
So yeah... Enjoy I suppose...
(...ATTACK OF THE ELLIPSES)

Intro/Verse

e|---------------------------------------------------------------------------|
B|---------------------------------------------------------------------------|
G|---------------------------------------------------------------------------|
D|--------4-------4-------4-------4------------------------------------------|
A|----2-2---2---2---2--------------------------------------------------------|
E|--------------------4-4---4---4---4----------------------------------------|
Mute: * * * *   * * * * * * *   * * *

Verse Held Notes (Played Over Intro/Verse)

e|-------------2------------------2------------------------------------------|
B|----0----------------------------------------------------------------------|
G|----------------------1----------------------------------------------------|
D|---------------------------------------------------------------------------|
A|---------------------------------------------------------------------------|
E|---------------------------------------------------------------------------|


Verse Alteration 1

e|---------------------------------------------------------------------------|
B|---------------------------------------------------------------------------|
G|--------------------9------------------------------------------------------|
D|--------------------9------------------------------------------------------|
A|----4-4-4-4-4-4-4-4-7------------------------------------------------------|
E|---------------------------------------------------------------------------|
Mute: * * * * * * * *


Verse Alteration 2

e|---------------------------------------------------------------------------|
B|---------------------------------------------------------------------------|
G|----6-6-6-6-6-6-6-6-9-9-9-9-9-9-9-9----------------------------------------|
D|----6-6-6-6-6-6-6-6-9-9-9-9-9-9-9-9----------------------------------------|
A|----4-4-4-4-4-4-4-4-7-7-7-7-7-7-7-7----------------------------------------|
E|---------------------------------------------------------------------------|



Pre-Chorus


e|---------------------------------------------------------------------------|
B|---------------------------------------------------------------------------|
G|----6-6-6-6-6-6-6-6-----------------6-6-6-6-6-6-6-6-9----------------------|
D|----6-6-6-6-6-6-6-6-4-4-4-4-4-4-4-4-6-6-6-6-6-6-6-6-9----------------------|
A|----4-4-4-4-4-4-4-4-4-4-4-4-4-4-4-4-4-4-4-4-4-4-4-4-7----------------------|
E|--------------------2-2-2-2-2-2-2-2----------------------------------------|



Chorus

e|---------------------------------------------------------------------------|
B|---------------------------------------------------------------------------|
G|------------------------------------6-6-6-6-6-6-6-6-9-9-9-9-9-9-9-9--------|
D|----9-9-9-9-9-9-9-9-6-6-6-6-6-6-6-6-6-6-6-6-6-6-6-6-9-9-9-9-9-9-9-9--------|
A|----9-9-9-9-9-9-9-9-6-6-6-6-6-6-6-6-4-4-4-4-4-4-4-4-7-7-7-7-7-7-7-7--------|
E|----7-7-7-7-7-7-7-7-4-4-4-4-4-4-4-4----------------------------------------|



Breakdown Thingy

e|---------------------------------------------------------------------------|
B|---------------------------------------------------------------------------|
G|--------------------6-6-x-6-6-x-6-x----------9-9-9-9-9-9-9-9-9-------------|
D|----6-6-x-6-6-x-6-x-6-6-x-6-6-x-6-x----X3----9-9-9-9-9-9-9-9-9-------------|
A|----6-6-x-6-6-x-6-x-4-4-x-4-4-x-4-x----------7-7-7-7-7-7-7-7-7-------------|
E|----4-4-x-4-4-x-4-x--------------------------------------------------------|


Order:
Verse/Intro x4
Verse Alteration 1 x1
Verse/Intro x3  with Verse Held Notes x3
Pre-Chorus x1
Chorus x2
Verse/Intro x4 with Verse Held Notes on last 2
Verse Alteration 2 x1
Verse/Intro x3  with Verse Held Notes x3
Pre-Chorus x1
Chorus x3
Breakdown Thingy x1
Verse/Intro x2
Chorus x4


Lyrics:


Verse 1:

Make me something out of nothing
You're good at that
I could be trippin but I think 
It's time we got back
To being apart
If you want to

Back and forth like a pinball
Stuck between
Those rubber bumpers
On the top of the machine

Pre-Chorus:

We can call it a day
If you want to
We can run away
If you want to

Chorus:

It's okay
It's all good
You get a smiley face
For showing your good side
We're going worldwide
You know you can't take it
Why don't we just get naked

Verse 2:

We go together like 
Peanut butter and jam
And most days there's
No doubt I'm your biggest fan
I buy you flowers and gum
Cause I want to

You hold my hand on roller
Coasters cause you get scared
And when you throw up cause it
Makes you sick I hold your hair

Pre-Chorus:

You tell me your fine
But I want to
You can be mine 
If you want to

Chorus x1

Breakdown Thingy:

If everything's fine why don't we just get
Naked in the front yard 
Naked on our christmas card
In the pool in the hall
In the fountain at the mall
Naked selling lemonade
Marching in the Macy's Thanksgiving Day Parade

Chorus x1

Final Chorus:

(Probably should)
It's okay
It's all good
(Probably should)
You get a smiley face
For showing your 
(Probably should)
Good side
We're going worldwide
You know you
(Probably should)
Can't take it
Why don't we just get naked




************************************

| /   slide up
| \   slide down
| h   hammer-on
| p   pull-off
| ~   vibrato
| +   harmonic
| x   Mute note
| b   Bend
| pb  Pre-bend
| br  Bend release
| pbr Pre-bend release
| brb Bend release bend

************************************
Tap to rate this tab
 
# A B C D E F G H I J K L M N O P Q R S T U V W X Y Z