Song name
# A B C D E F G H I J K L M N O P Q R S T U V W X Y Z

Bowling For Soup - Heres Your Freakin Song tab

-----------------------------------------------------------------
Here's Your Freakin' Song - Bowling For Soup
-----------------------------------------------------------------
Tabbed by: Bair
Email: bair_morritt@hotmail.com

Tuning: Standard

Intro:
e|----------------------------------|
B|----------------------------------|
G|-------------------------2--44-2--|
D|--2--------22-6-77--6-44-2--44-2--| (X2)
A|--2-(X16)--22-6-77--6-44-0--22-0--|
E|--0--------00-4-55--4-22----------|
            "Baby, for years you've been...."

Intro: (LEAD)
e|-------------------------------------------|
B|--5-5-5--5-5-5--5-5-5---9-7-7---------7----|
G|---4-4-4--4-4-4--4-4-4--------9-9---9---9--|
D|----------------------------------9--------| (X2)
A|-------------------------------------------|
E|-------------------------------------------|

Verse (P.M):
e|------------------------------------------|
B|------------------------------------------|
G|-----------------------XXXX-4-XXXXXX-8----|
D|--XXXXX-7-XXXX-6-4-XXXXXXXX-4-XXXXXX-8-2--| (X2)
A|--XXXXX-7-XXXX-6-4-XXXXXXXX-2-XXXXXX-6-2--|
E|--XXXXX-5-XXXX-4-2-XXXX----------------0--|
"We've been together, for so long...."

Pre-Chorus:
e|---------------------------------------|
B|---------------------------------------|
G|--6-----------------6--------77777777--|
D|--6-(Ring)-4--------6-(Ring)-77777777--|
A|--4--------4-(Ring)-4--------55555555--|
E|-----------2---------------------------|
"I've been writing all night, and I...."

Chorus:
e|-------------------------|
B|-------------------------|
G|----------------2--44-2--|
D|--22-6-77--6-44-2--44-2--| (X2)
A|--22-6-77--6-44-0--22-0--|
E|--00-4-55--4-22----------|
"You talk too much, you never shut up...."

Chorus: (LEAD)
e|--12-12-12-12-12-12-12-12-12-12-12-12--14-14-14-14--|
B|----------------------------------------------------|
G|----------------------------------------------------|
D|----------------------------------------------------| (X2)
A|----------------------------------------------------|
E|----------------------------------------------------|

Post Chorus:
e|---------------------------------------------------|
B|---------------------------------------------------|
G|--66666666-88888888-99999999-------------------44--|
D|--66666666-88888888-99999999-77777777-6-44-44--44--|
A|--44444444-66666666-77777777-77777777-6-44-44--22--|
E|-----------------------------55555555-4-22-22------|
"I promised you forever, but we both know, we're never...."

Break:
e|-------------------------|
B|-------------------------|
G|----------------2--44-2--|
D|--22-6-77--6-44-2--44-2--| (X2)
A|--22-6-77--6-44-0--22-0--|
E|--00-4-55--4-22----------|

Break: (LEAD)
e|---------------------------------------------------|
B|--5--5-5-7-5--5-5-5-7-5--5-5-5-7-5--9-7-7-------7--|
G|---4--4-----4--4-4-----4--4-4-----4------9-9--9----|
D|--------------------------------------------9------| (X2)
A|---------------------------------------------------|
E|---------------------------------------------------|

Then: Verse
Then: Pre-Chorus
Then: Chorus
Then: Post-Chorus

Bridge:
e|-----------|---------------------------------------|
B|-----------|---------------------------------------|
G|-----------|--2-2-2-2-----------4-4-4-4--6-6--4-4--|
D|--22222222-|--2-2-2-2--2-2-2-2--4-4-4-4--6-6--4-4--|
A|--22222222-|--0-0-0-0--2-2-2-2--2-2-2-2--4-4--2-2--|
E|--00000000-|-----------0-0-0-0---------------------|
             "I can talk and you get pissed, you start...."

e|-------------------------------------|
B|-------------------------------------|
G|--2-2-2-2--------------------444444--|
D|--2-2-2-2--2-2-2-2--44444444-444444--|
A|--0-0-0-0--2-2-2-2--44444444-222222--|
E|-----------0-0-0-0--22222222---------|
"With all the shit that we've been through...."

Then: Intro
Then: Chorus
Then: Post Chorus
Then: Break until end.
Tap to rate this tab
 
# A B C D E F G H I J K L M N O P Q R S T U V W X Y Z