Bowling For Soup - My Girlfriend Sucks tab

Song: My Girlfriend Sucks
Artist: Bowling For Soup
Album: Sorry For Partyin' (Japanese Edition Bonus Track)
Year: 2009

Hmm... this one's been out for a while...
Wonder why there's no tab... well here's my take on the song...
It's not perfect but it's better than nothing...


Riff (Guitar 1):

e|---------------------------------------------------------------------------|
B|----6-4-2--22-4-6---6-4-2--22-4-6---6-4-2--22-4-6-4--2--22-4-44------------|
G|---------------------------------------------------------------------------|
D|---------------------------------------------------------------------------|
A|---------------------------------------------------------------------------|
E|---------------------------------------------------------------------------|


Riff (Guitar 2)

e|---------------------------------------------------------------------------|
B|---------------------------------------------------------------------------|
G|----6---6-----------6---6-----------6---6----------------------------------|
D|----6---6---6---6---6---6---4---4---6---6---6---6---4---4---6---6----------|
A|----4---4---6---6---4---4---4---4---4---4---6---6---4---4---6---6----------|
E|------------4---4-----------2---2-----------4---4---2---2---4---4----------|


Verse:  (Listen For The Rhythm)

e|---------------------------------------------------------------------------|
B|---------------------------------------------------------------------------|
G|----6-6---666-6---66--------------8----------------------------------------|
D|----6-6---666-6---664-4---444-4---8----------------------------------------|
A|----4-4---444-4---444-4---444-4---6----------------------------------------|
E|--------------------2-2---222-2--------------------------------------------|


Verse Variation:

e|---------------------------------------------------------------------------|
B|---------------------------------------------------------------------------|
G|----6-6-6-6-6-6-6-6-----------------6-6-6-6-6-6-6-6------------------------|
D|----6-6-6-6-6-6-6-6-4-4-4-4-4-4-4-4-6-6-6-6-6-6-6-6-4-4-4-4-4-4-4-4--------|
A|----4-4-4-4-4-4-4-4-4-4-4-4-4-4-4-4-4-4-4-4-4-4-4-4-4-4-4-4-4-4-4-4--------|
E|--------------------2-2-2-2-2-2-2-2-----------------2-2-2-2-2-2-2-2--------|


Pre-Chorus:

e|---------------------------------------------------------------------------|
B|---------------------------------------------------------------------------|
G|---------------------------------------------------------------------------|
D|----4-4-4-4-4-4-4-4-6-6-6-6-6-6-6-6-4-4-4-4-4-4-4-4-6-6-6-6-6-6-6-6-6------|
A|----4-4-4-4-4-4-4-4-6-6-6-6-6-6-6-6-4-4-4-4-4-4-4-4-6-6-6-6-6-6-6-6-6------|
E|----2-2-2-2-2-2-2-2-4-4-4-4-4-4-4-4-2-2-2-2-2-2-2-2-4-4-4-4-4-4-4-4-4------|


Chorus:

e|---------------------------------------------------------------------------|
B|---------------------------------------------------------------------------|
G|----6---6-----------6---6-----------6---6----------------------------------|     x2
D|----6---6---6---6---6---6---4---4---6---6---6---6---4---4---6---6----------|
A|----4---4---6---6---4---4---4---4---4---4---6---6---4---4---6---6----------|
E|------------4---4-----------2---2-----------4---4---2---2---4---4----------|


Bridge:

e|---------------------------------------------------------------------------|
B|---------------------------------------------------------------------------|
G|----8-8-8-8-8-8-8-8-6-6-6-6-6-6-6-6-4-4-4-4-4-4-4-4-3-3-3-3-3-3-3-3--------|
D|----8-8-8-8-8-8-8-8-6-6-6-6-6-6-6-6-4-4-4-4-4-4-4-4-3-3-3-3-3-3-3-3--------|
A|----6-6-6-6-6-6-6-6-4-4-4-4-4-4-4-4-2-2-2-2-2-2-2-2-1-1-1-1-1-1-1-1--------|
E|---------------------------------------------------------------------------|

e|----------------------------------------------------------------------------|
B|----------------------------------------------------------------------------|
G|----8-8-8-8-8-8-8-8-11-11-11-11-11-11-11-11-6-6-6-6-6-6-6-6-----------------|
D|----8-8-8-8-8-8-8-8-11-11-11-11-11-11-11-11-6-6-6-6-6-6-6-6-6-6-6-6-6-6-6-6-|
A|----6-6-6-6-6-6-6-6-9--9--9--9--9--9--9--9--4-4-4-4-4-4-4-4-6-6-6-6-6-6-6-6-|
E|------------------------------------------------------------4-4-4-4-4-4-4-4-|

e|---------------------------------------------------------------------------|
B|---------------------------------------------------------------------------|
G|----8-8-8-8-8-8-8-8-11-11-11-11-11-11-11-11--------------------------------|
D|----8-8-8-8-8-8-8-8-11-11-11-11-11-11-11-11--------------------------------|
A|----6-6-6-6-6-6-6-6-9--9--9--9--9--9--9--9---------------------------------|
E|---------------------------------------------------------------------------|


e|---------------------------------------------------------------------------|
B|---------------------------------------------------------------------------|
G|----6-6-6-6-6-6-6-6-6-6-6-6-6-6-6-6-6-6-6-6-6-6-6-6-6-6-6-6-6-6-6-6--------|
D|----6-6-6-6-6-6-6-6-6-6-6-6-6-6-6-6-6-6-6-6-6-6-6-6-6-6-6-6-6-6-6-6--------|
A|----4-4-4-4-4-4-4-4-4-4-4-4-4-4-4-4-4-4-4-4-4-4-4-4-4-4-4-4-4-4-4-4--------|
E|---------------------------------------------------------------------------|
Mute: * * * * * * * * * * * * * * * * * * * * 


Final Chord:

e|---------------------------------------------------------------------------|
B|---------------------------------------------------------------------------|
G|----6----------------------------------------------------------------------|
D|----6----------------------------------------------------------------------|
A|----4----------------------------------------------------------------------|
E|---------------------------------------------------------------------------|

Order:
Riff x2
Verse x4
Verse Variation x1
Verse x2
Pre-Chorus x1
Chorus x1
(Bass Riff) 
Verse x4
Verse Variation x1
Verse x2
Pre-Chorus x1
Chorus x1
Bridge x1
Riff x1
Chorus x1
Riff x2
Final Chord x1



Tap to rate this tab
 
# A B C D E F G H I J K L M N O P Q R S T U V W X Y Z