Song name
# A B C D E F G H I J K L M N O P Q R S T U V W X Y Z

Bowling For Soup - Ive Never Done Anything Like This tab

Song: I've Never Done Anything Like This
Artist: Bowling For Soup
Album: Fishin' For Woos
Year: 2011

This is another great song from Bowling For Soup... 
Not sure why no one requested a tab for this one...
But anyways, here's my shot at it...
Enjoy... (If it's right...)


Riff (Guitar 1):


e|----------------------------------------------------------------------------------|
B|----------------------------------------------------------------------------------|
G|----9---9---8/9--9---9---9---8/9--9---9---9---8/9--9---11--11--11/-13/11/9--------|
D|----------------------------------------------------------------------------------|
A|----7---7---6/7--7---7---7---6/7--7---7---7---6/7--7---9---9---9-/-11/9-/7--------|
E|----------------------------------------------------------------------------------|


Riff (Guitar 2):

e|---------------------------------------------------------------------------|
B|---------------------------------------------------------------------------|
G|----9-9-9-9-9-9-9-9-----------------6-6-6-6-6-6-6-6------------------------|
D|----9-9-9-9-9-9-9-9-7-7-7-7-7-7-7-7-6-6-6-6-6-6-6-6-9-9-9-9-9-9-9-9--------|
A|----7-7-7-7-7-7-7-7-7-7-7-7-7-7-7-7-4-4-4-4-4-4-4-4-9-9-9-9-9-9-9-9--------|
E|--------------------5-5-5-5-5-5-5-5-----------------7-7-7-7-7-7-7-7--------|



Verse:

e|---------------------------------------------------------------------------|
B|---------------------------------------------------------------------------|
G|----9-9-9-9-9-9-9-9-----------------9-9-9-9-9-9-9-9------------------------|
D|----9-9-9-9-9-9-9-9-7-7-7-7-7-7-7-7-9-9-9-9-9-9-9-9-9-9-9-9-9-9-9-9--------|
A|----7-7-7-7-7-7-7-7-7-7-7-7-7-7-7-7-7-7-7-7-7-7-7-7-9-9-9-9-9-9-9-9--------|
E|--------------------5-5-5-5-5-5-5-5-----------------7-7-7-7-7-7-7-7--------|
Mute: * * * * * * * * * * * * * * * * * * * * * * * * * * * * * * * *


e|---------------------------------------------------------------------------|
B|---------------------------------------------------------------------------|
G|----6-6-6-6-6-6-6-6-2-2-2-2-2-2-2-2-----------------4-4-4-4-4-4-4-4--------|
D|----6-6-6-6-6-6-6-6-2-2-2-2-2-2-2-2-4-4-4-4-4-4-4-4-4-4-4-4-4-4-4-4--------|
A|----4-4-4-4-4-4-4-4-0-0-0-0-0-0-0-0-4-4-4-4-4-4-4-4-2-2-2-2-2-2-2-2--------|
E|------------------------------------2-2-2-2-2-2-2-2------------------------|
Mute: * * * * * * * * * * * * * * * * * * * * * * * * * * * * * * 


Pre-Chorus:

e|---------------------------------------------------------------------------|
B|---------------------------------------------------------------------------|
G|---------------------------------------------------------------------------|
D|--------7-------6-------4---9----------------------------------------------|
A|------7---7---6---6---4---4-9----------------------------------------------|
E|----5-------4-------2-------7----------------------------------------------|
Mute: * * * * * * * * * * * * (Ring)


Chorus:

e|---------------------------------------------------------------------------|
B|---------------------------------------------------------------------------|
G|----9-9-9-9-9-9-9-9-----------------6-6-6-6-6-6-6-6------------------------|    x2
D|----9-9-9-9-9-9-9-9-7-7-7-7-7-7-7-7-6-6-6-6-6-6-6-6-9-9-9-9-9-9-9-9--------|
A|----7-7-7-7-7-7-7-7-7-7-7-7-7-7-7-7-4-4-4-4-4-4-4-4-9-9-9-9-9-9-9-9--------|
E|--------------------5-5-5-5-5-5-5-5-----------------7-7-7-7-7-7-7-7--------|

e|---------------------------------------------------------------------------|
B|---------------------------------------------------------------------------|
G|---------------------------------------------------------------------------|
D|----------9----------------------------------------------------------------|
A|------6-9------------------------------------------------------------------|
E|----7----------------------------------------------------------------------|


Bridge:

e|---------------------------------------------------------------------------|
B|---------------------------------------------------------------------------|
G|----6-6-6-6-6-6-6-6-----------------9-9-9-9-9-9-9-9-4-4-4-4-5-5-5-5--------|
D|----6-6-6-6-6-6-6-6-7-7-7-7-7-7-7-7-9-9-9-9-9-9-9-9-4-4-4-4-5-5-5-5--------|
A|----4-4-4-4-4-4-4-4-7-7-7-7-7-7-7-7-7-7-7-7-7-7-7-7-2-2-2-2-3-3-3-3--------|
E|--------------------5-5-5-5-5-5-5-5----------------------------------------|

e|---------------------------------------------------------------------------|
B|---------------------------------------------------------------------------|
G|----6-6-6-6-6-6-6-6---------------------------------4-4-4-4-4-4-4-4--------|
D|----6-6-6-6-6-6-6-6-7-7-7-7-7-7-7-7-4-4-4-4-4-4-4-4-4-4-4-4-4-4-4-4--------|
A|----4-4-4-4-4-4-4-4-7-7-7-7-7-7-7-7-4-4-4-4-4-4-4-4-2-2-2-2-2-2-2-2--------|
E|--------------------5-5-5-5-5-5-5-5-2-2-2-2-2-2-2-2------------------------|


Solo:  (Not 100% Correct)

e|---------------------------------------------------------------------------|
B|---------------------------------------------------------------------------|
G|---------------------------------------------------------------------------|
D|----6-9-9---9-11-9-9---9-6-9-9--9-11-9-9--9-6-9-9---9-11-9-9---------------|
A|---------------------------------------------------------------7---9-------|
E|-----------------------------------------------------------------------7---|

e|---------------------------------------------------------------------------|
B|---------------------------------------------------------------------------|
G|---------------------------------------------------------------------------|
D|----6-9-9---9-11-9-9--9-12-12-12---9-9-11-9-9--9-6-9-9---9-11-9-9-11-9-----|
A|---------------------------------------------------------------------------|
E|---------------------------------------------------------------------------|



Order:
Riff (Both Guitars) x2
Verse x2
Pre-Chorus x1
Chorus x1
Riff x1
Verse x2
Pre-Chorus x1
Chorus x1
Bridge x1
Solo x1   with Verse x1  (The Verse is unmuted)
Pre-Chorus x1
Chorus x1    (Don't play the first time through the chords
              Mute the second time through
              Skip the last line of the chorus as well)
Chorus x1    (Back to normal)
Riff x2
Play the last line of the chorus
Tap to rate this tab
 
# A B C D E F G H I J K L M N O P Q R S T U V W X Y Z