Bowling For Soup - Walk Of Shame tab

Song: Walk Of Shame
Artist: Bowling For Soup
Album: Sorry For Partyin'
Year: 2009


Saw a request for this... listened to the song...
Was blown away by its awesomeness... then I decided to tab it...
For myself... but then I realized it would be easier to put it on here...
So yeah... Enjoy!



Verse:

e|---------------------------------------------------------------------------|
B|----------------------------------------------------------------0----------|
G|--------0-----0-0-------0-----0-0-------0-----0-0-------0-----0---0--------|
D|------0-----0-----0---0-----0-----0---0-----0-----0---0-----0--------------|
A|----2-----3-------------------------2-----3--------------------------------|
E|--------------------2-----3-------------------------2-----3----------------|


Pre-Chorus:

e|---------------------------------------------------------------------------|
B|---------------------------------------------------------------------------|
G|----7-7-7-7-7-7-7-7-7-7-7-7-7-7-7-7-5-5-5-5-5-5-5-5------------------------|
D|----7-7-7-7-7-7-7-7-7-7-7-7-7-7-7-7-5-5-5-5-5-5-5-5-5-5-5-5-5-5-5-5--------|
A|----5-5-5-5-5-5-5-5-5-5-5-5-5-5-5-5-3-3-3-3-3-3-3-3-5-5-5-5-5-5-5-5--------|
E|----------------------------------------------------3-3-3-3-3-3-3-3--------|

e|---------------------------------------------------------------------------|
B|---------------------------------------------------------------------------|
G|----7-7-7-7-7-7-7-7-7-7-7-7-7-7-7-7-----------------7----------------------|
D|----7-7-7-7-7-7-7-7-7-7-7-7-7-7-7-7-7-7-7-7-7-7-7-7-7----------------------|
A|----5-5-5-5-5-5-5-5-5-5-5-5-5-5-5-5-7-7-7-7-7-7-7-7-5----------------------|
E|------------------------------------5-5-5-5-5-5-5-5------------------------|


Chorus:

e|---------------------------------------------------------------------------|
B|---------------------------------------------------------------------------|
G|----5-5-5-5-5-5-5-5-5-5-5-5-5-5-5-5----------------------------------------|
D|----5-5-5-5-5-5-5-5-5-5-5-5-5-5-5-5-5-5-5-5-5-5-5-5-4-4-4-4-4-4-4-4--------|
A|----3-3-3-3-3-3-3-3-3-3-3-3-3-3-3-3-5-5-5-5-5-5-5-5-5-5-5-5-5-5-5-5--------|
E|------------------------------------3-3-3-3-3-3-3-3-2-2-2-2-2-2-2-2--------|

e|---------------------------------------------------------------------------|
B|---------------------------------------------------------------------------|
G|----5-5-5-5-5-5-5-5-5-5-5-5-5-5-5-5-----------------7-7-7-7-7-7-7-7--------|
D|----5-5-5-5-5-5-5-5-5-5-5-5-5-5-5-5-5-5-5-5-5-5-5-5-7-7-7-7-7-7-7-7--------|
A|----3-3-3-3-3-3-3-3-3-3-3-3-3-3-3-3-5-5-5-5-5-5-5-5-5-5-5-5-5-5-5-5--------|
E|------------------------------------3-3-3-3-3-3-3-3------------------------|

e|---------------------------------------------------------------------------|
B|---------------------------------------------------------------------------|
G|---------------------------------------------------------------------------|
D|----7-7-7-7-7-7-7-7-7-7-7-7-7-9---10---------------------------------------|
A|----7-7-7-7-7-7-7-7-7-7-7-7-7-9---10---------------------------------------|
E|----5-5-5-5-5-5-5-5-5-5-5-5-5-7---8----------------------------------------|


Solo (Guitar 1):

e|---------------------------------------------------------------------------|
B|---------------------------------------------------------------------------|
G|----3-3-3-3-3-3-3-3-3-3-3-3-3-3-3-3----------------------------------------|
D|----3-3-3-3-3-3-3-3-3-3-3-3-3-3-3-3-3-3-3-3-3-3-3-3-2-2-2-2-2-2-2-2--------|
A|----1-1-1-1-1-1-1-1-1-1-1-1-1-1-1-1-3-3-3-3-3-3-3-3-2-2-2-2-2-2-2-2--------|
E|------------------------------------1-1-1-1-1-1-1-1-0-0-0-0-0-0-0-0--------|

e|---------------------------------------------------------------------------|
B|---------------------------------------------------------------------------|
G|----3-3-3-3-3-3-3-3-3-3-3-3-3-3-3-3-5-5-5-5-5-5-5-5-7-7-7-7-7-7-7-7--------|
D|----3-3-3-3-3-3-3-3-3-3-3-3-3-3-3-3-5-5-5-5-5-5-5-5-7-7-7-7-7-7-7-7--------|
A|----1-1-1-1-1-1-1-1-1-1-1-1-1-1-1-1-3-3-3-3-3-3-3-3-5-5-5-5-5-5-5-5--------|
E|---------------------------------------------------------------------------|


Solo (Guitar 2):

e|----0h1-1-1-1-1-1-1-1-1-1-1-1-3-3-3-3-5-5-5-5-5-5-5-5----------------------|
B|------------------------------------------------------5-5-5-5-5-5-5-5------|
G|---------------------------------------------------------------------------|
D|---------------------------------------------------------------------------|
A|---------------------------------------------------------------------------|
E|---------------------------------------------------------------------------|

e|----------------------------0-0-0-0-3-3-3-5-5-5-8-8-8-10-10-10-10-10-10-10----|
B|----3-3-3-3-3-3-3-3-3-3-3-3---------------------------------------------------|
G|------------------------------------------------------------------------------|
D|------------------------------------------------------------------------------|
A|------------------------------------------------------------------------------|
E|------------------------------------------------------------------------------|


Outro:

e|---------------------------------------------------------------------------|
B|---------------------------------------------------------------------------|
G|----5-5-5-5-5-5-5-5-5-5-5-5-5-5-5-5----------------------------------------|
D|----5-5-5-5-5-5-5-5-5-5-5-5-5-5-5-5-5-5-5-5-5-5-5-5-4-4-4-4-4-4-4-4--------|
A|----3-3-3-3-3-3-3-3-3-3-3-3-3-3-3-3-5-5-5-5-5-5-5-5-5-5-5-5-5-5-5-5--------|
E|------------------------------------3-3-3-3-3-3-3-3-2-2-2-2-2-2-2-2--------|

e|---------------------------------------------------------------------------|
B|---------------------------------------------------------------------------|
G|----5-5-5-5-5-5-5-5-5-5-5-5-5-5-5-5-----------------7-7-7-7-7-7-7-7--------|
D|----5-5-5-5-5-5-5-5-5-5-5-5-5-5-5-5-5-5-5-5-5-5-5-5-7-7-7-7-7-7-7-7--------|
A|----3-3-3-3-3-3-3-3-3-3-3-3-3-3-3-3-5-5-5-5-5-5-5-5-5-5-5-5-5-5-5-5--------|
E|------------------------------------3-3-3-3-3-3-3-3------------------------|






Order:
Verse x5
Pre-Chorus x1
Chorus x1
Verse x5
Chorus x1
Solo (Both Guitars) x1
Verse x2
Chorus x2               (On the first time through skip the last line of the
                         tab for the chorus)


Outro x4                (The fourth time goes into a fade)






Tap to rate this tab
 
# A B C D E F G H I J K L M N O P Q R S T U V W X Y Z