Song name
# A B C D E F G H I J K L M N O P Q R S T U V W X Y Z

Bowling For Soup - Girls In America tab

Song: Girls In America
Artist: Bowling For Soup
Album: Fishin' For Woos
Year: 2011



Hmm... I don't have anything to say about this tab...
So here it is... I guess... Enjoy!


Intro:

e|---------------------------------------------------------------------------|
B|---------------------------------------------------------------------------|
G|----6-6-6-6-6-6-6-6-6-6-6-6-6-6-6-6----------------------------------------|
D|----6-6-6-6-6-6-6-6-6-6-6-6-6-6-6-6-4-4-4-4-4-4-4-4-6-6-6-6-6-6-6-6--------|
A|----4-4-4-4-4-4-4-4-4-4-4-4-4-4-4-4-4-4-4-4-4-4-4-4-6-6-6-6-6-6-6-6--------|
E|------------------------------------2-2-2-2-2-2-2-2-4-4-4-4-4-4-4-4--------|
Mute: * * *   * * *   * * *   * * *   * * *   * * *   * * *   * * *   

 
e|---------------------------------------------------------------------------|
B|---------------------------------------------------------------------------|
G|----6-6-6-6-6-6-6-6-6-6-6-6-6-6-6-6----------------------------------------|
D|----6-6-6-6-6-6-6-6-6-6-6-6-6-6-6-6-4-4-4-4-4-4-4-4-6-6-6-6-6--------------|
A|----4-4-4-4-4-4-4-4-4-4-4-4-4-4-4-4-4-4-4-4-4-4-4-4-6-6-6-6-6--------------|
E|------------------------------------2-2-2-2-2-2-2-2-4-4-4-4-4--------------|
Mute: * * *   * * *   * * *   * * *   * * *   * * *     



Riff (Guitar 1):

e|---------------------------------------------------------------------------|
B|---------------------------------------------------------------------------|
G|----6-6-6-6-6-6-6-6-6-6-6-6-6-6-6-6----------------------------------------|
D|----6-6-6-6-6-6-6-6-6-6-6-6-6-6-6-6-4-4-4-4-4-4-4-4-6-6-6-6-6-6-6-6--------|
A|----4-4-4-4-4-4-4-4-4-4-4-4-4-4-4-4-4-4-4-4-4-4-4-4-6-6-6-6-6-6-6-6--------|
E|------------------------------------2-2-2-2-2-2-2-2-4-4-4-4-4-4-4-4--------|


Riff (Guitar 2):

e|---------------------------------------------------------------------------------|
B|---------------------------------------------------------------------------------|
G|----6-6-6-6-6-6-6-6-11-11-10-10-8-8-6-6-6-6-6-6-6-6-6-6-13-13-13-15-13-13-13-13--|
D|---------------------------------------------------------------------------------|
A|----4-4-4-4-4-4-4-4-9--9--8--8--6-6-4-4-4-4-4-4-4-4-4-4-11-11-11-13-11-11-11-11--|
E|---------------------------------------------------------------------------------|


Verse:

e|---------------------------------------------------------------------------|
B|---------------------------------------------------------------------------|
G|----6-6-6-6-6-6-6-6-6-6-6-6-6-6-6-6----------------------------------------|
D|----6-6-6-6-6-6-6-6-6-6-6-6-6-6-6-6-4-4-4-4-4-4-4-4-6-6-6-6-6-6-6-6--------|
A|----4-4-4-4-4-4-4-4-4-4-4-4-4-4-4-4-4-4-4-4-4-4-4-4-6-6-6-6-6-6-6-6--------|
E|------------------------------------2-2-2-2-2-2-2-2-4-4-4-4-4-4-4-4--------|
Mute: * * *   * * *   * * *   * * *   * * *   * * *   * * *   * * *   


Pre-Chorus:

e|---------------------------------------------------------------------------|
B|---------------------------------------------------------------------------|
G|--------------------4-4-4-4------------------------------------------------|
D|----2-2-2-2-2-2-2-2-4-4-4-4-4-4-4-4----------------------------------------|
A|----2-2-2-2-2-2-2-2-2-2-2-2-4-4-4-4----------------------------------------|
E|----0-0-0-0-0-0-0-0---------2-2-2-2----------------------------------------|


Chorus:   (The second guitar part on the riff is quietly played behind this)

e|---------------------------------------------------------------------------|
B|---------------------------------------------------------------------------|
G|----6-6-6-6-6-6-6-6-6-6-6-6-6-6-6-6----------------------------------------|      x3
D|----6-6-6-6-6-6-6-6-6-6-6-6-6-6-6-6-4-4-4-4-4-4-4-4-6-6-6-6-6--------------|
A|----4-4-4-4-4-4-4-4-4-4-4-4-4-4-4-4-4-4-4-4-4-4-4-4-6-6-6-6-6--------------|
E|------------------------------------2-2-2-2-2-2-2-2-4-4-4-4-4--------------|

e|---------------------------------------------------------------------------|
B|---------------------------------------------------------------------------|
G|----6-6-6-6-6-6-6-6-6-6-6-6-6-6-6-6----------------------------------------|
D|----6-6-6-6-6-6-6-6-6-6-6-6-6-6-6-6-x-x-x-x-x-x-x-x-x-x-x-x-x--------------|
A|----4-4-4-4-4-4-4-4-4-4-4-4-4-4-4-4-x-x-x-x-x-x-x-x-x-x-x-x-x--------------|
E|------------------------------------x-x-x-x-x-x-x-x-x-x-x-x-x--------------|


Bridge:

e|---------------------------------------------------------------------------|
B|---------------------------------------------------------------------------|
G|----4-4-4-4-4-4-4-4-----------------6-6-6-6-6-6-6-6------------------------|      x2
D|----4-4-4-4-4-4-4-4-4-4-4-4-4-4-4-4-6-6-6-6-6-6-6-6-6-6-6-6-6-6-6-6--------|
A|----2-2-2-2-2-2-2-2-4-4-4-4-4-4-4-4-4-4-4-4-4-4-4-4-6-6-6-6-6-6-6-6--------|
E|--------------------2-2-2-2-2-2-2-2-----------------4-4-4-4-4-4-4-4--------|


Interlude (Guitar 1):

e|------------------------------------------------------------------------------------|
B|------------------------------------------------------------------------------------|
G|----6-----------------------6-------6---------------------------6-6-6-6-6-6-6-6-----|
D|----6-------4-------6---4---6-------6-------4-------6-6---4-4---6-6-6-6-6-6-6-6-----|
A|----4-------4-------6---4---4-------4-------4-------6-6---4-4---4-4-4-4-4-4-4-4-----|
E|------------2-------4---2-------------------2-------4-4---2-2-----------------------|


Interlude (Guitar 2):

e|---------------------------------------------------------------------------|
B|---------------------------------------------------------------------------|
G|----6---6---6---6---6---6---6---6---6---6---6---6---6---6---6---6----------|
D|---------------------------------------------------------------------------|
A|----4---4---4---4---4---4---4---4---4---4---4---4---4---4---4---4----------|
E|---------------------------------------------------------------------------|

e|---------------------------------------------------------------------------|
B|---------------------------------------------------------------------------|
G|----6---6---6---6---6---6---6---6---------------6-6-6-6-6-6-6-6------------|
D|------------------------------------6-6---4-4---6-6-6-6-6-6-6-6------------|
A|----4---4---4---4---4---4---4---4---6-6---4-4---4-4-4-4-4-4-4-4------------|
E|------------------------------------4-4---2-2------------------------------|



Outro:

e|---------------------------------------------------------------------------|
B|---------------------------------------------------------------------------|
G|----6-6-6-6-6-6-6-6-6------------------------------------------------------|     x3
D|----6-6-6-6-6-6-6-6-6---2-3-4---4-3----------------------------------------|
A|----4-4-4-4-4-4-4-4-4---2-3-4---4-3----------------------------------------|
E|------------------------0-1-2---2-1----------------------------------------|

e|---------------------------------------------------------------------------|
B|---------------------------------------------------------------------------|
G|----6-6-6---------6---6-6-6------------------------------------------------|     
D|----6-6-6-4---4-4-6---6-6-6------------------------------------------------|
A|----4-4-4-4---4-4-4---4-4-4------------------------------------------------|
E|----------2---2-2----------------------------------------------------------|



Order:
Intro x1
Riff (Both Guitars) x2
Verse x2
Pre-Chorus x1
Chorus x1
Riff (Both Guitars) x1
Verse x2
Pre-Chorus x1
Chorus x1
Bridge x1
Interlude (Both Guitars) x1
Riff (Both Guitars) x1
Chorus x1
Riff (Both Guitars) x2
Outro x1





Tap to rate this tab
 
# A B C D E F G H I J K L M N O P Q R S T U V W X Y Z