Song name
# A B C D E F G H I J K L M N O P Q R S T U V W X Y Z

Bowling For Soup - This Aint My Day tab

-------------------------------------------------------------------------------
			This Ain’t My Day - Bowling For Soup
-------------------------------------------------------------------------------
Tabbed by: Sami

Facebook Page: www.facebook.com/samitheguitarist

Tuning: Standard

I saw some requests of this song and decided to try tabbing it by ear. I think this is 
at least 99% correct.
I tabbed both guitars.
Hope you’ll enjoy it and let me know what you think about!
(Any feedback would be appreciated after all the work that I did to tab this out!:P)



Info for advanced level guitarists (with at least some knowledge about measures, 4/4, 
eighth notes and up and down strokes):
I tried to keep the rythim of the song placing between the chords as many hyphen (-) as 
needed to give the correct timing idea. So:
1 hyphen (-) between two chords means stroke and consecutively another stroke;
2 hyphen (--) between two chords mean stroke, pause, and then stroke again;
3 hyphen (---) between two chords mean stroke, pause, pause, stroke;
and so on.
Notice that to keep order I started every measure with one hyphen (|-)and
where there's only a chord per measure I didn't applied the hyphen count.

I tried to explain myself as best as I could, even if you didn't understand
anything about the last info everything is right and you should be able
to understand rythim by yourself.




The song starts with a slide!

e|-----|
B|-----|
G|-----|
D|-10\-|
A|-10\-|
E|-8-\-|

Intro

Guitar I

e|---------------|--------------|---------------|--------------|
B|---------------|--------------|---------------|--------------|
G|---------------|-5-5--5-5--5--|---------------|-5-5--5-5--5--|
D|-3---3-3-3-3-3-|-5-5--5-5--5--|-3---3-3-3-3-3-|-5-5--5-5--5--|
A|-3---3-3-3-3-3-|-3-3--3-3--3--|-3---3-3-3-3-3-|-3-3--3-3--3--|
E|-1---1-1-1-1-1-|--------------|-1---1-1-1-1-1-|--------------|

e|-----------------|---------------- |-----------------|-----------------|
B|-----------------|-----------------|-----------------|-----------------|
G|-----------------|-5-5-5-5-5-5-5-5-|-7-7-7-7-7-7-7-7-|-----------------|
D|-3-3-3-3-3-3-3-3-|-5-5-5-5-5-5-5-5-|-7-7-7-7-7-7-7-7-|-5-5-5-5-5-5-5-5-|
A|-3-3-3-3-3-3-3-3-|-3-3-3-3-3-3-3-3-|-5-5-5-5-5-5-5-5-|-5-5-5-5-5-5-5-5-|
E|-1-1-1-1-1-1-1-1-|-----------------|-----------------|-3-3-3-3-3-3-3-3-|


Guitar II

e|-------------------|-------------|-------------------|-------------|
B|-------------------|-------------|-------------------|-------------|
G|-10---10-10-9-7-5\-|-9---9-9--9--|-10---10-10-9-7-5\-|-9---9-9--9--|
D|-x----x--x--x-x-x\-|-x---x-x--x--|-x----x--x--x-x-x\-|-x---x-x--x--|
A|-8----8--8--7-5-3\-|-7---7-7--7--|-8----8--8--7-5-3\-|-7---7-7--7--|
E|-------------------|-------------|-------------------|-------------|

e|-----------------|-------------------|
B|-----------------|-------------------|
G|-5-5-5-5-5-5-5-5-|-9-9-9-9-9-9-9-9-9-|
D|-x-x-x-x-x-x-x-x-|-x-x-x-x-x-x-x-x-x-|
A|-3-3-3-3-3-3-3-3-|-7-7-7-7-7-7-7-7-7-|
E|-----------------|-------------------|

e|-------------------------|-------------------------|
B|-------------------------|-------------------------|
G|-10-10-10-10-10-10-10-10-|-12-12-12-12-12-12-12-12-|
D|-x--x--x--x--x--x--x--x--|-x--x--x--x--x--x--x--x--|
A|-8--8--8--8--8--8--8--8--|-10-10-10-10-10-10-10-10-|
E|-------------------------|-------------------------|


Verse

Guitar I

e|-----------------|-----------------|-----------------|-----------------|
B|-----------------|-----------------|-----------------|-----------------|
G|-5-5-5-5-5-5-5-5-|-----------------|-----------------|-----------------|
D|-5-5-5-5-5-5-5-5-|-5-5-5-5-5-5-5-5-|-7-7-7-7-7-7-7-7-|-5-5-5-5-5-5-5-5-| (x4)
A|-3-3-3-3-3-3-3-3-|-5-5-5-5-5-5-5-5-|-7-7-7-7-7-7-7-7-|-5-5-5-5-5-5-5-5-| PALM
E|-----------------|-3-3-3-3-3-3-3-3-|-5-5-5-5-5-5-5-5-|-3-3-3-3-3-3-3-3-| MUTED


Guitar II

e|-----------------|-----------------|-----------------|-----------------|
B|-----------------|-----------------|-----------------|-----------------|
G|-5-5-5-5-5-5-5-5-|-----------------|-----------------|-----------------|
D|-5-5-5-5-5-5-5-5-|-5-5-5-5-5-5-5-5-|-7-7-7-7-7-7-7-7-|-5-5-5-5-5-5-5-5-| (x2)
A|-3-3-3-3-3-3-3-3-|-5-5-5-5-5-5-5-5-|-7-7-7-7-7-7-7-7-|-5-5-5-5-5-5-5-5-| PALM
E|-----------------|-3-3-3-3-3-3-3-3-|-5-5-5-5-5-5-5-5-|-3-3-3-3-3-3-3-3-| MUTED

e|-----------------|---3-----3-----3-|----------------|---3-----3-----3-|
B|---5-----5-----5-|-----3-----3-----|--5-----5-----5-|-----3-----3-----|
G|-----5-----5-----|-------4-----4---|----5-----5-----|-------4-----4---|
D|-------5-----5---|-----------------|------7-----7---|-----------------|  (x2)
A|-3---------------|-----------------|----------------|-----------------|
E|-----------------|-3---------------|-5--------------|-3---------------|



PreChorus

Guitar I

e|---------------|--------------|---------------|--------------|
B|---------------|--------------|---------------|--------------|
G|---------------|-5-5--5-5--5--|---------------|-5-5--5-5--5--|
D|-3---3-3-3-3-3-|-5-5--5-5--5--|-3---3-3-3-3-3-|-5-5--5-5--5--|
A|-3---3-3-3-3-3-|-3-3--3-3--3--|-3---3-3-3-3-3-|-3-3--3-3--3--|
E|-1---1-1-1-1-1-|--------------|-1---1-1-1-1-1-|--------------|

e|-----------------|---------------- |-----------------|-----------------|
B|-----------------|-----------------|-----------------|-----------------|
G|-----------------|-5-5-5-5-5-5-5-5-|-7-7-7-7-7-7-7-7-|-----------------|
D|-3-3-3-3-3-3-3-3-|-5-5-5-5-5-5-5-5-|-7-7-7-7-7-7-7-7-|-5-5-5-5-5-5-5-5-|
A|-3-3-3-3-3-3-3-3-|-3-3-3-3-3-3-3-3-|-5-5-5-5-5-5-5-5-|-5-5-5-5-5-5-5-5-|
E|-1-1-1-1-1-1-1-1-|-----------------|-----------------|-3-3-3-3-3-3-3-3-|


Guitar II

e|-------------------|-------------|-------------------|-------------|
B|-------------------|-------------|-------------------|-------------|
G|-10---10-10-9-7-5\-|-9---9-9--9--|-10---10-10-9-7-5\-|-9---9-9--9--|
D|-x----x--x--x-x-x\-|-x---x-x--x--|-x----x--x--x-x-x\-|-x---x-x--x--|
A|-8----8--8--7-5-3\-|-7---7-7--7--|-8----8--8--7-5-3\-|-7---7-7--7--|
E|-------------------|-------------|-------------------|-------------|

e|-----------------|-------------------|
B|-----------------|-------------------|
G|-5-5-5-5-5-5-5-5-|-9-9-9-9-9-9-9-9-9-|
D|-x-x-x-x-x-x-x-x-|-x-x-x-x-x-x-x-x-x-|
A|-3-3-3-3-3-3-3-3-|-7-7-7-7-7-7-7-7-7-|
E|-----------------|-------------------|

e|-------------------------|-------------------------|
B|-------------------------|-------------------------|
G|-10-10-10-10-10-10-10-10-|-12-12-12-12-12-12-12-12-|
D|-x--x--x--x--x--x--x--x--|-x--x--x--x--x--x--x--x--|
A|-8--8--8--8--8--8--8--8--|-10-10-10-10-10-10-10-10-|
E|-------------------------|-------------------------|



Chorus

Guitar I

e|-----------------|-----------------|-----------------|-----------------|
B|-----------------|-----------------|-----------------|-----------------|
G|-5-5-5-5-5-5-5-5-|-----------------|-5-5-5-5-5-5-5-5-|-----------------|
D|-5-5-5-5-5-5-5-5-|-5-5-5-5-5-5-5-5-|-5-5-5-5-5-5-5-5-|-3-3-3-3-3-3-3-3-|
A|-3-3-3-3-3-3-3-3-|-5-5-5-5-5-5-5-5-|-3-3-3-3-3-3-3-3-|-3-3-3-3-3-3-3-3-|
E|-----------------|-3-3-3-3-3-3-3-3-|-----------------|-1-1-1-1-1-1-1-1-|

e|-1-------------|---------------|---------------|----------------|
B|-1-------------|---------------|---------------|----------------|
G|-1------5--x-x-|--------5--x-x-|---------------|-5--5-5-5-5-5-5-|
D|-3--x-x-5--x-x-|-5--x-x-5--x-x-|-3--x-x-5--x-x-|-5--5-5-5-5-5-5-|
A|-3--x-x-3--x-x-|-5--x-x-3--x-x-|-3--x-x-5--x-x-|-3--3-3-3-3-3-3-|
E|-1--x-x--------|-3--x-x--------|-1--x-x-3--x-x-|----------------|

e|---------------|----------------|
B|---------------|----------------|
G|---------------|-5--5-5-5-5-5-5-|
D|-3--x-x-5--x-x-|-5--5-5-5-5-5-5-|
A|-3--x-x-5--x-x-|-3--3-3-3-3-3-3-|
E|-1--x-x-3--x-x-|----------------|


Guitar II

e|-----------------|-----------------|
B|-----------------|-----------------|
G|-5-5-5-5-5-5-5-5-|-7-7-7-7-7-7-7-7-|
D|-x-x-x-x-x-x-x-x-|-x-x-x-x-x-x-x-x-|
A|-3-3-3-3-3-3-3-3-|-5-5-5-5-5-5-5-5-|
E|-----------------|-----------------|

e|-----------------|-------------------------|
B|-----------------|-------------------------|
G|-9-9-9-9-9-9-9-9-|-10-10-10-10-10-10-10-10-|
D|-x-x-x-x-x-x-x-x-|-x--x--x--x--x--x--x--x--|
A|-7-7-7-7-7-7-7-7-|-8--8--8--8--8--8--8--8--|
E|-----------------|-------------------------|

e|---------------|----------------|-----------------|-------------|
B|---------------|----------------|-----------------|-------------|
G|-5--x-x-7--x-x-|-4--x-x-5—5-5-4-|---5-5-4-7-5-5-4-|-5-----5-5-4-|
D|-x--x-x-x--x-x-|-x--x-x-x-------|-7---------------|-------------|
A|-3--x-x-5--x-x-|-2--x-x-3-------|-----------------|-------------|
E|---------------|----------------|-----------------|-------------|

e|-----------------|-------------|
B|-----------------|-------------|
G|---5-5-4-7-5-5-4-|-5-----------|
D|-7---------------|-------------|
A|-----------------|-------------|
E|-----------------|-------------|



Verse 2

Guitar I

e|-----------------|-----------------|-----------------|-----------------|
B|-----------------|-----------------|-----------------|-----------------|
G|-5-5-5-5-5-5-5-5-|-----------------|-----------------|-----------------|
D|-5-5-5-5-5-5-5-5-|-5-5-5-5-5-5-5-5-|-7-7-7-7-7-7-7-7-|-5-5-5-5-5-5-5-5-| (x2)
A|-3-3-3-3-3-3-3-3-|-5-5-5-5-5-5-5-5-|-7-7-7-7-7-7-7-7-|-5-5-5-5-5-5-5-5-| PALM
E|-----------------|-3-3-3-3-3-3-3-3-|-5-5-5-5-5-5-5-5-|-3-3-3-3-3-3-3-3-| MUTED

e|-----------------|-----------------|-----------------|-----------------|
B|-----------------|-----------------|-----------------|-----------------|
G|-5-5-5-5-5-5-5-5-|-----------------|-----------------|-----------------|
D|-5-5-5-5-5-5-5-5-|-5-5-5-5-5-5-5-5-|-7-7-7-7-7-7-7-7-|-5-5-5-5-5-5-5-5-| (x2)
A|-3-3-3-3-3-3-3-3-|-5-5-5-5-5-5-5-5-|-7-7-7-7-7-7-7-7-|-5-5-5-5-5-5-5-5-|
E|-----------------|-3-3-3-3-3-3-3-3-|-5-5-5-5-5-5-5-5-|-3-3-3-3-3-3-3-3-|


Guitar II

e|-----------------|---3-----3-----3-|----------------|---3-----3-----3-|
B|---5-----5-----5-|-----3-----3-----|--5-----5-----5-|-----3-----3-----|
G|-----5-----5-----|-------4-----4---|----5-----5-----|-------4-----4---|
D|-------5-----5---|-----------------|------7-----7---|-----------------|  (x4)
A|-3---------------|-----------------|----------------|-----------------|
E|-----------------|-3---------------|-5--------------|-3---------------|



PreChorus

Guitar I

e|---------------|--------------|---------------|--------------|
B|---------------|--------------|---------------|--------------|
G|---------------|-5-5--5-5--5--|---------------|-5-5--5-5--5--|
D|-3---3-3-3-3-3-|-5-5--5-5--5--|-3---3-3-3-3-3-|-5-5--5-5--5--|
A|-3---3-3-3-3-3-|-3-3--3-3--3--|-3---3-3-3-3-3-|-3-3--3-3--3--|
E|-1---1-1-1-1-1-|--------------|-1---1-1-1-1-1-|--------------|

e|-----------------|---------------- |-----------------|-----------------|
B|-----------------|-----------------|-----------------|-----------------|
G|-----------------|-5-5-5-5-5-5-5-5-|-7-7-7-7-7-7-7-7-|-----------------|
D|-3-3-3-3-3-3-3-3-|-5-5-5-5-5-5-5-5-|-7-7-7-7-7-7-7-7-|-5-5-5-5-5-5-5-5-|
A|-3-3-3-3-3-3-3-3-|-3-3-3-3-3-3-3-3-|-5-5-5-5-5-5-5-5-|-5-5-5-5-5-5-5-5-|
E|-1-1-1-1-1-1-1-1-|-----------------|-----------------|-3-3-3-3-3-3-3-3-|


Guitar II

e|-------------------|-------------|-------------------|-------------|
B|-------------------|-------------|-------------------|-------------|
G|-10---10-10-9-7-5\-|-9---9-9--9--|-10---10-10-9-7-5\-|-9---9-9--9--|
D|-x----x--x--x-x-x\-|-x---x-x--x--|-x----x--x--x-x-x\-|-x---x-x--x--|
A|-8----8--8--7-5-3\-|-7---7-7--7--|-8----8--8--7-5-3\-|-7---7-7--7--|
E|-------------------|-------------|-------------------|-------------|

e|-----------------|-------------------|
B|-----------------|-------------------|
G|-5-5-5-5-5-5-5-5-|-9-9-9-9-9-9-9-9-9-|
D|-x-x-x-x-x-x-x-x-|-x-x-x-x-x-x-x-x-x-|
A|-3-3-3-3-3-3-3-3-|-7-7-7-7-7-7-7-7-7-|
E|-----------------|-------------------|

e|-------------------------|-------------------------|
B|-------------------------|-------------------------|
G|-10-10-10-10-10-10-10-10-|-12-12-12-12-12-12-12-12-|
D|-x--x--x--x--x--x--x--x--|-x--x--x--x--x--x--x--x--|
A|-8--8--8--8--8--8--8--8--|-10-10-10-10-10-10-10-10-|
E|-------------------------|-------------------------|



Chorus

Guitar I

e|-----------------|-----------------|-----------------|-----------------|
B|-----------------|-----------------|-----------------|-----------------|
G|-5-5-5-5-5-5-5-5-|-----------------|-5-5-5-5-5-5-5-5-|-----------------|
D|-5-5-5-5-5-5-5-5-|-5-5-5-5-5-5-5-5-|-5-5-5-5-5-5-5-5-|-3-3-3-3-3-3-3-3-|
A|-3-3-3-3-3-3-3-3-|-5-5-5-5-5-5-5-5-|-3-3-3-3-3-3-3-3-|-3-3-3-3-3-3-3-3-|
E|-----------------|-3-3-3-3-3-3-3-3-|-----------------|-1-1-1-1-1-1-1-1-|

e|-1-------------|---------------|---------------|----------------|
B|-1-------------|---------------|---------------|----------------|
G|-1------5--x-x-|--------5--x-x-|---------------|-5--5-5-5-5-5-5-|
D|-3--x-x-5--x-x-|-5--x-x-5--x-x-|-3--x-x-5--x-x-|-5--5-5-5-5-5-5-|
A|-3--x-x-3--x-x-|-5--x-x-3--x-x-|-3--x-x-5--x-x-|-3--3-3-3-3-3-3-|
E|-1--x-x--------|-3--x-x--------|-1--x-x-3--x-x-|----------------|


e|---------------|----------------|
B|---------------|----------------|
G|---------------|-5--5-5-5-5-5-5-|
D|-3--x-x-5--x-x-|-5--5-5-5-5-5-5-|
A|-3--x-x-5--x-x-|-3--3-3-3-3-3-3-|
E|-1--x-x-3--x-x-|----------------|



Guitar II

e|-----------------|-----------------|
B|-----------------|-----------------|
G|-5-5-5-5-5-5-5-5-|-7-7-7-7-7-7-7-7-|
D|-x-x-x-x-x-x-x-x-|-x-x-x-x-x-x-x-x-|
A|-3-3-3-3-3-3-3-3-|-5-5-5-5-5-5-5-5-|
E|-----------------|-----------------|

e|-----------------|-------------------------|
B|-----------------|-------------------------|
G|-9-9-9-9-9-9-9-9-|-10-10-10-10-10-10-10-10-|
D|-x-x-x-x-x-x-x-x-|-x--x--x--x--x--x--x--x--|
A|-7-7-7-7-7-7-7-7-|-8--8--8--8--8--8--8--8--|
E|-----------------|-------------------------|

e|---------------|----------------|-----------------|-------------|
B|---------------|----------------|-----------------|-------------|
G|-5--x-x-7--x-x-|-4--x-x-5—5-5-4-|---5-5-4-7-5-5-4-|-5-----5-5-4-|
D|-x--x-x-x--x-x-|-x--x-x-x-------|-7---------------|-------------|
A|-3--x-x-5--x-x-|-2--x-x-3-------|-----------------|-------------|
E|---------------|----------------|-----------------|-------------|

e|-----------------|-------------|
B|-----------------|-------------|
G|---5-5-4-7-5-5-4-|-5-----------|
D|-7---------------|-------------|
A|-----------------|-------------|
E|-----------------|-------------|



Bridge

Guitar I

e|--------------|--------------|--------------|-----------------|
B|--------------|--------------|--------------|-----------------|
G|--------------|-7--7--7--7-7-|--------------|-5-5-5-5-4-4-4-4-|
D|-7--7--7--7-7-|-7--7--7--7-7-|-5--5--5--5-5-|-5-5-5-5-5-5-5-5-|
A|-7--7--7--7-7-|-5--5--5--5-5-|-5--5--5--5-5-|-3-3-3-3-2-2-2-2-|
E|-5--5--5--5-5-|--------------|-3--3--3--3-3-|-----------------|

e|--------------|--------------|-----------------|-------------------|
B|--------------|--------------|-----------------|-------------------|
G|--------------|-7--7--7--7-7-|-----------------|-------------------|
D|-7--7--7--7-7-|-7--7--7--7-7-|-5-5-5-5-5-5-5-5-|-5-5-5-5-5-5-5-5-5-|
A|-7--7--7--7-7-|-5--5--5--5-5-|-5-5-5-5-5-5-5-5-|-5-5-5-5-5-5-5-5-5-|
E|-5--5--5--5-5-|--------------|-3-3-3-3-3-3-3-3-|-3-3-3-3-3-3-3-3-3-|

e|------|------|------|-\---|
B|------|------|------|-\---| The first C chord lasts for three measures
G|-5----|------|------|-\---|
D|-5----|------|------|-\---|
A|-3----|------|------|-\---|
E|------|------|------|-\---|


Guitar II

e|--------------|--------------|--------------|-----------------|
B|--------------|--------------|--------------|-----------------|
G|--------------|-7--7--7--7-7-|--------------|-5-5-5-5-4-4-4-4-|
D|-7--7--7--7-7-|-7--7--7--7-7-|-5--5--5--5-5-|-5-5-5-5-5-5-5-5-|
A|-7--7--7--7-7-|-5--5--5--5-5-|-5--5--5--5-5-|-3-3-3-3-2-2-2-2-|
E|-5--5--5--5-5-|--------------|-3--3--3--3-3-|-----------------|

e|--------------|--------------|----------------|-------------------|
B|--------------|--------------|----------------|-------------------|
G|--------------|-7--7--7--7-7-|----------------|-7-----------------|
D|-7--7--7--7-7-|-7--7--7--7-7-|-5--------------|-x-----------------|
A|-7--7--7--7-7-|-5--5--5--5-5-|-x--------------|-5-----------------|
E|-5--5--5--5-5-|--------------|-3--------------|-------------------|

e|------|-3----|------|-1--\--|
B|------|-3----|-1----|-1--\--|
G|-5----|-0----|-0----|-2--\--| The pick slide starts at the second half of
D|-5----|-0----|-2----|-3--\--| the measure.
A|-3----|-2----|-3----|-3--\--|
E|------|-3----|------|-1--\--|



REFRAIN

e|-1-------------|---------------|---------------|----------------|
B|-1-------------|---------------|---------------|----------------|
G|-1------5--x-x-|--------5--x-x-|---------------|-5--5-5-5-5-5-5-|
D|-3--x-x-5--x-x-|-5--x-x-5--x-x-|-3--x-x-5--x-x-|-5--5-5-5-5-5-5-|
A|-3--x-x-3--x-x-|-5--x-x-3--x-x-|-3--x-x-5--x-x-|-3--3-3-3-3-3-3-|
E|-1--x-x--------|-3--x-x--------|-1--x-x-3--x-x-|----------------|

e|-----------------|
B|-----------------|
G|-----------------|
D|-3-3-3-3-5-5-5-5-|
A|-3-3-3-3-5-5-5-5-|
E|-1-1-1-1-3-3-3-3-|


Guitar II

e|---------------|----------------|-----------------|-----------------|
B|---------------|----------------|-----------------|-----------------|
G|-5--x-x-7--x-x-|-4--x-x-5—5-5-4-|---5-5-4-7-5-5-4-|-5-5-5-5-5-5-5-5-|
D|-x--x-x-x--x-x-|-x--x-x-x-------|-7---------------|-----------------|
A|-3--x-x-5--x-x-|-2--x-x-3-------|-----------------|-----------------|
E|---------------|----------------|-----------------|-----------------|

e|----------------|
B|----------------|
G|-5-5-5-5-7/9\5--|
D|----------------|
A|----------------|
E|----------------|



Chorus

Guitar I

e|-----------------|-----------------|-----------------|-----------------|
B|-----------------|-----------------|-----------------|-----------------|
G|-5-5-5-5-5-5-5-5-|-----------------|-5-5-5-5-5-5-5-5-|-----------------|
D|-5-5-5-5-5-5-5-5-|-5-5-5-5-5-5-5-5-|-5-5-5-5-5-5-5-5-|-3-3-3-3-3-3-3-3-|
A|-3-3-3-3-3-3-3-3-|-5-5-5-5-5-5-5-5-|-3-3-3-3-3-3-3-3-|-3-3-3-3-3-3-3-3-|
E|-----------------|-3-3-3-3-3-3-3-3-|-----------------|-1-1-1-1-1-1-1-1-|

e|---------------|---------------|---------------|----------------|
B|---------------|---------------|---------------|----------------|
G|--------5--x-x-|--------5--x-x-|---------------|-5--5-5-5-5-5-5-|
D|-3--x-x-5--x-x-|-5--x-x-5--x-x-|-3--x-x-5--x-x-|-5--5-5-5-5-5-5-|
A|-3--x-x-3--x-x-|-5--x-x-3--x-x-|-3--x-x-5--x-x-|-3--3-3-3-3-3-3-|
E|-1--x-x--------|-3--x-x--------|-1--x-x-3--x-x-|----------------|

e|---------------|----------------|
B|---------------|----------------|
G|------ --------|-5--5-5-5-5-5-5-|
D|-3--x-x-5--x-x-|-5--5-5-5-5-5-5-|
A|-3--x-x-5--x-x-|-3--3-3-3-3-3-3-|
E|-1--x-x-3--x-x-|----------------|


Guitar II

e|-----------------|-----------------|
B|-----------------|-----------------|
G|-5-5-5-5-5-5-5-5-|-7-7-7-7-7-7-7-7-|
D|-x-x-x-x-x-x-x-x-|-x-x-x-x-x-x-x-x-|
A|-3-3-3-3-3-3-3-3-|-5-5-5-5-5-5-5-5-|
E|-----------------|-----------------|

e|-----------------|-------------------------|
B|-----------------|-------------------------|
G|-9-9-9-9-9-9-9-9-|-10-10-10-10-10-10-10-10-|
D|-x-x-x-x-x-x-x-x-|-x--x--x--x--x--x--x--x--|
A|-7-7-7-7-7-7-7-7-|-8--8--8--8--8--8--8--8--|
E|-----------------|-------------------------|

e|---------------|----------------|-----------------|-------------|
B|---------------|----------------|-----------------|-------------|
G|-5--x-x-7--x-x-|-4--x-x-5—5-5-4-|---5-5-4-7-5-5-4-|-5-----5-5-4-|
D|-x--x-x-x--x-x-|-x--x-x-x-------|-7---------------|-------------|
A|-3--x-x-5--x-x-|-2--x-x-3-------|-----------------|-------------|
E|---------------|----------------|-----------------|-------------|

e|-----------------|-------------|
B|-----------------|-------------|
G|---5-5-4-7-5-5-4-|-5-----------|
D|-7---------------|-------------|
A|-----------------|-------------|
E|-----------------|-------------|



Outro

Guitar I

e|-1-------------|---------------|-----|
B|-1-------------|---------------|-----|
G|-1------5------|--------5------|-----|
D|-3------5------|-5------5------|-----| The outro is slowed down
A|-3------3------|-5------3------|-----|
E|-1-------------|-3-------------|-----|


Guitar II

e|-1-------------|---------------|-----|
B|-1-------------|---------------|-----|
G|-1------5------|--------5------|-----|
D|-3------5------|-5------5------|-----| The outro is slowed down
A|-3------3------|-5------3------|-5/7-|
E|-1-------------|-3-------------|-----|




************************************

| /   slide up
| \   slide down
| h   hammer-on
| p   pull-off
| ~   vibrato
| +   harmonic
| x   Mute note
| b   Bend
| pb  Pre-bend
| br  Bend release
| pbr Pre-bend release
| brb Bend release bend

************************************
Tap to rate this tab
 
# A B C D E F G H I J K L M N O P Q R S T U V W X Y Z