Song name
# A B C D E F G H I J K L M N O P Q R S T U V W X Y Z

Bowling For Soup - Turbulence chords

Highlighted       Show chord diagrams
[Verse 1]

 |acoustic 1|
e|------------0h2-------------3---------------3-------0-----0-----|
B|----------0-----3-------------3---------------3-----3-----2-----|
G|--------2---------0-------0---------------2-----2---2-----2-----|
D|----0-------------------0---------0-----2---------2-2-----2-----|
A|0h2-------------------------------------------------0-----0-----|
E|--------------------3-----------2---0---------------------------|

Bm              G
It's so hard to figure out
Em           A
Which way to turn 
Bm               G
There's no going back now 
Em               A
All your bridges burned 
Bm                  A
The stars are gonna shine on you 
           D   (On the G string play open a string then 2 second thret) G/F#
If you can get through the     day 
Em7                
Storm clouds all around you
      Asus4              A
But a blue skies on the way. 

[Chorus]

D         G        D            A
And we're all just passengers tonight 
D         G        D                     A      Bm   A
And we're all just traveling through our lives 
          G              D
We will reach our destination 
        A                     Bm
So just hang on for the ride 
      C
Say a prayer and close your eyes 
     G (hold)
It's just a little turbulence. 

 |acoustic 1|
e|------------0h2-------------3---------------3-------0-----0-----|
B|----------0-----3-------------3---------------3-----3-----2-----|
G|--------2---------0-------0---------------2-----2---2-----2-----|
D|----0-------------------0---------0-----2---------2-2-----2-----|
A|0h2-------------------------------------------------0-----0-----|
E|--------------------3-----------2---0---------------------------|
 
Bm          G
Take a look around you 
Em                 A
Look how far you've come 
Bm                    G
Your whole life in front of you
Em               A 
You've only just begun
Bm                A 
We've all got our problems 
D   (On the G string play open a string then 2 second thret) G/F#
But they're just bumps in the road 
Em
If you only keep on fighting 
        Asus4              A
There's no where you can't go. 

Chorus once

[Bridge] 

Em		                 A
This life can be so crazy 
D                     G
Can spin out of control 
      Em                 A           D       
But I hope that all your dreams come true 
          Em               A  
Cause you know that you're amazing 
       Bm     A         G
And no matter where you go 
        Em
I'll be there for you
       Asus4             A        A add2       A
We can make it through. 

Repeat Chorus twice
Tap to rate this tab
 
# A B C D E F G H I J K L M N O P Q R S T U V W X Y Z