Song name
# A B C D E F G H I J K L M N O P Q R S T U V W X Y Z

Bowling For Soup - Smiley Face Its All Good tab

This is a tab for Smiley Face (It's All Good) by Bowling for Soup off the album Fishin' 
for Woo's.
It's a cool song so I thought i'd tab it (:
Not to sure about that synth bit or the guitar two part at the end but the rest of it is 
pretty solid.
Contact me or comment if you have any corrections, thanks :D

Palm Mute - .
Slide down - \

Intro: guitar one
E-------------------------------------------------------------|
B-------------------------------------------------------------|
G-------------------------------------------------------------|
D-----4------4-------4------4-------4------4-------4----------|
A-2-2---2--2---2----------------2-2---2--2---2----------------|
E----------------4-4---4--4---4----------------4-4---4--4-2-4-|
  . .   .  .   . . .   .  .   . . .   .  .   . . .   .  . . .
Make me something out of nothing...
E-------------------------------------------------------------|
B-------------------------------------------------------------|
G-------------------------------------------------------------|
D-----4------4-------4------4-------4------4-------4------4---|
A-2-2---2--2---2----------------2-2---2--2---2----------------|
E----------------4-4---4--4---4----------------4-4---4--4---4-|
  . .   .  .   . . .   .  .   . . .   .  .   . . .   .  .   .
To being a part...
E--------------------|
B--------------------|
G-----------------9--|
D-----------------9--|
A-4-4-4-4-4-4-4-4-7--|
E--------------------|
  . . . . . .
Slowly release palm mute

Verse: Guitar one
back and forth like a pinball stuck between...
E-------------------------------------------------------------|
B-------------------------------------------------------------|
G-------------------------------------------------------------|
D-----4------4-------4------4-------4------4-------4----------|
A-2-2---2--2---2----------------2-2---2--2---2----------------|
E----------------4-4---4--4---4----------------4-4---4--4-2-4-|
  . .   .  .   . . .   .  .   . . .   .  .   . . .   .  . . .

E-------------------------------------------------------------|
B-------------------------------------------------------------|
G-------------------------------99999999-66666666-99999999-11-|
D-----4------4-------4----------99999999-66666666-99999999-11-|
A-2-2---2--2---2----------------77777777-44444444-77777777-9--|
E----------------4-4---4--4-14\-------------------------------|
  . .   .  .   . . .   .  .
Guitar two
E-----2-------2--------2-------2--------2-------2-|
B-0------0---------0------0---------0------0------|
G----------1-----1----------1-----1----------1----|
D-------------------------------------------------|
A-------------------------------------------------|
E-------------------------------------------------|

Chorus:
It's ok, it's all good...
E-------------------------------------------------------------------|
B-------------------------------------------------------------------|
G-------------------99999999-66666666-------------------99999999-11-|
D-99999999-66666666-99999999-66666666-99999999-66666666-99999999-11-|
A-99999999-66666666-77777777-44444444-99999999-66666666-77777777-9--|
E-77777777-44444444-------------------77777777-44444444-------------|

Post Chorus Interlude: Guitar one
E------------------------------------------------|
B------------------------------------------------|
G------------------------------------------------|
D-----4------4-------4------4-------4------4-----|
A-2-2---2--2---2----------------2-2---2--2---2---|
E----------------4-4---4--4---4----------------4-|
  . .   .  .   . . .   .  .   . . .   .  .   . .

Verse 2:
we go together like peanut butter and jam...
E-------------------------------------------------------------|
B-------------------------------------------------------------|
G-------------------------------------------------------------|
D-----4------4-------4------4-------4------4-------4----------|
A-2-2---2--2---2----------------2-2---2--2---2----------------|
E----------------4-4---4--4---4----------------4-4---4--4-2-4-|
  . .   .  .   . . .   .  .   . . .   .  .   . . .   .  . . .
I buy you flowers and gum...
E--------------------------|
B--------------------------|
G-99999999-111111111111111-|
D-99999999-111111111111111-|
A-77777777-9-9-9-9-9-9-9-9-|
E--------------------------|
I hold your hand on roller coasters...
E-------------------------------------------------------------|
B-------------------------------------------------------------|
G-------------------------------------------------------------|
D-----4------4-------4------4-------4------4-------4----------|
A-2-2---2--2---2----------------2-2---2--2---2----------------|
E----------------4-4---4--4---4----------------4-4---4--4-2-4-|
  . .   .  .   . . .   .  .   . . .   .  .   . . .   .  . . .
and when you throw up...
E-------------------------------------------------------------|
B-------------------------------------------------------------|
G-------------------------------99999999-66666666-99999999-11-|
D-----4------4-------4----------99999999-66666666-99999999-11-|
A-2-2---2--2---2----------------77777777-44444444-77777777-9--|
E----------------4-4---4--4-14\-------------------------------|
  . .   .  .   . . .   .  .

Guitar two
E-----2-------2--------2-------2----|
B-0------0---------0------0---------|
G----------1-----1----------1-----1-|
D-----------------------------------|
A-----------------------------------|
E-----------------------------------|

E-----2-------2--------2-------2--------2-------2-|
B-0------0---------0------0---------0------0------|
G----------1-----1----------1-----1----------1----|
D-------------------------------------------------|
A-------------------------------------------------|
E-------------------------------------------------|

Chorus 2:
It's ok, it's all good
E----------------------------------------------------------------|
B----------------------------------------------------------------|
G-------------------99999999-66666666-------------------99999999-|
D-99999999-66666666-99999999-66666666-99999999-66666666-99999999-|
A-99999999-66666666-77777777-44444444-99999999-66666666-77777777-|
E-77777777-44444444-------------------77777777-44444444----------|

E----------------------------------------------|
B----------------------------------------------|
G-66666666-------------------99999999-66666666-|
D-66666666-99999999-66666666-99999999-66666666-|
A-44444444-99999999-66666666-77777777-44444444-|
E----------77777777-44444444-------------------|

Chorus 2 Part 2
naked in the front yard...
E-------------------------------------------------------|
B-------------------------------------------------------|
G-------------------------------------------------------|
D-66-66--6-99-99--9-66-66-6--99-99--9-66-66--6-99-99--9-|
A-66-66--6-99-99--9-66-66-6--99-99--9-66-66--6-99-99--9-|
E-44-44--4-77-77--7-44-44-4--77-77--7-44-44--7-77-77--7-|

E-----------|
B-----------|
G-999999999-
D-999999999-
A-777777777-
E-----------
  ........
Slowly release palm mute

Post Chorus Interlude 2: Guitar one
E------------------------------------------------|
B------------------------------------------------|
G------------------------------------------------|
D-----4------4-------4------4-------4------4-----|
A-2-2---2--2---2----------------2-2---2--2---2---|
E----------------4-4---4--4---4----------------4-|
  . .   .  .   . . .   .  .   . . .   .  .   . .

Post Chorus Interlude 2: Synth (tabbed for guitar)
E-20----19h20-19--17---15--17-12-|
B--------------------------------|
G--------------------------------|
D--------------------------------|
A--------------------------------|
E--------------------------------|

Chorus 3: Guitar one
It's ok, it's all good...
E----------------------------------------------------------------|
B----------------------------------------------------------------|
G-------------------99999999-66666666-------------------99999999-|
D-99999999-66666666-99999999-66666666-99999999-66666666-99999999-|
A-99999999-66666666-77777777-44444444-99999999-66666666-77777777-|
E-77777777-44444444-------------------77777777-44444444----------|

E----------------------------------------------------------------|
B----------------------------------------------------------------|
G-66666666-------------------99999999-66666666-------------------|
D-66666666-99999999-66666666-99999999-66666666-99999999-66666666-|
A-44444444-99999999-66666666-77777777-44444444-99999999-66666666-|
E----------77777777-44444444-------------------77777777-44444444-|

E-------------|
B-------------|
G-99999999-11-|
D-99999999-11-|
A-77777777-9--|
E-------------|

Chorus 3: Guitar two
you get a...
E------------------------------------------------------------|
B------------------------------------------------------------|
G-99999999-111111111111111-1313131313131313-1515151515151515-|
D-xxxxxxxx-xxxxxxxxxxxxxxx-xxxxxxxxxxxxxxxx-xxxxxxxxxxxxxxxx-|
A-77777777-9-9-9-9-9-9-9-9-1111111111111111-1313131313131313-|
E------------------------------------------------------------|

E---------------------|
B---------------------|
G-1717171717171717-19-|
D-xxxxxxxxxxxxxxxx-xx-|
A-1515151515151515-17-|
E---------------------|
Tap to rate this tab
 
# A B C D E F G H I J K L M N O P Q R S T U V W X Y Z