Song name
# A B C D E F G H I J K L M N O P Q R S T U V W X Y Z

Bowling For Soup - Evil All Over The World tab

Song: Evil All Over The World
Artist: Bowling For Soup
Album: Fishin' For Woos
Year: 2011

I'm really tired... hmm... haven't tabbed in a while...
This is probably right but I might have missed a couple things...
Awesome BFS song so yeah... Enjoy the tab I suppose...



Riff (Guitar 1):

e|---------------------------------------------------------------------------|
B|---------------------------------------------------------------------------|
G|------------------------------------7-7-7-7-7-7-7-7-7-7-7-7-7-7-7-7--------|
D|----7-7-7-7-7-7-7-7-7-7-7-7-7-7-7-7-7-7-7-7-7-7-7-7-7-7-7-7-7-7-7-7--------|
A|----7-7-7-7-7-7-7-7-7-7-7-7-7-7-7-7-5-5-5-5-5-5-5-5-5-5-5-5-5-5-5-5--------|
E|----5-5-5-5-5-5-5-5-5-5-5-5-5-5-5-5----------------------------------------|

e|---------------------------------------------------------------------------|
B|---------------------------------------------------------------------------|
G|---------------------------------------------------------------------------|
D|----4-4-4-4-4-4-4-4-4-4-4-4-4-4-4-4-2-2-2-2-2-2-2-2-x-x-x-x-x-x-x-x--------|
A|----4-4-4-4-4-4-4-4-4-4-4-4-4-4-4-4-2-2-2-2-2-2-2-2-x-x-x-x-x-x-x-x--------|
E|----2-2-2-2-2-2-2-2-2-2-2-2-2-2-2-2-0-0-0-0-0-0-0-0-x-x-x-x-x-x-x-x--------|

Riff (Guitar 2)

e|---------------------------------------------------------------------------|
B|---------------------------------------------------------------------------|
G|----------4-----6-------4---6-------11----9--------------------------------|
D|----7-------------------------------------------7~~~~----------------------|
A|----------2-----4-------2---4-------9-----7--------------------------------|
E|----5-------------------------------------------5~~~~----------------------|

e|---------------------------------------------------------------------------|
B|---------------------------------------------------------------------------|
G|----6-----6-----6-------7---6---4------------------------------------------|
D|----------------------------------------------------x-x-x-x-x-x-x-x--------|
A|----4-----4-----4-------5---4---2-------------------x-x-x-x-x-x-x-x--------|
E|----------------------------------------------------x-x-x-x-x-x-x-x--------|


Verse:

e|---------------------------------------------------------------------------|
B|---------------------------------------------------------------------------|
G|---------------------------------------------------------------------------|
D|----7-7-7-7-7-7-7-7-7-7-7-7-7-7-7-7-4-4-4-4-4-4-4-4-4-4-4-4-4-4-4-4--------|
A|----7-7-7-7-7-7-7-7-7-7-7-7-7-7-7-7-4-4-4-4-4-4-4-4-4-4-4-4-4-4-4-4--------|
E|----5-5-5-5-5-5-5-5-5-5-5-5-5-5-5-5-2-2-2-2-2-2-2-2-2-2-2-2-2-2-2-2--------|
Mute:   * * * * * * * * * * * * * * *   * * * * * * * * * * * * * * *

e|---------------------------------------------------------------------------|
B|---------------------------------------------------------------------------|
G|------------------------------------7-7-7-7-7-7-7-7-7-7-7-7-7-7-7-7--------|
D|----2-2-2-2-2-2-2-2-2-2-2-2-2-2-2-2-7-7-7-7-7-7-7-7-7-7-7-7-7-7-7-7--------|
A|----2-2-2-2-2-2-2-2-2-2-2-2-2-2-2-2-5-5-5-5-5-5-5-5-5-5-5-5-5-5-5-5--------|
E|----0-0-0-0-0-0-0-0-0-0-0-0-0-0-0-0----------------------------------------|
Mute:   * * * * * * * * * * * * * * *   * * * * * * * * * * * * * * *


Pre-Chorus:

e|---------------------------------------------------------------------------|
B|---------------------------------------------------------------------------|
G|----11------------------------------4--------------------------------------|
D|----11------------------------------4--------------------------------------|
A|----9-------------------------------2--------------------------------------|
E|---------------------------------------------------------------------------|

e|---------------------------------------------------------------------------|
B|---------------------------------------------------------------------------|
G|----7-------------------------------9---9-9-9-9-9-9-9-9-9-9-9-9-9-9--------|
D|----7-------------------------------9---9-9-9-9-9-9-9-9-9-9-9-9-9-9--------|
A|----5-------------------------------7---7-7-7-7-7-7-7-7-7-7-7-7-7-7--------|
E|---------------------------------------------------------------------------|
Mute:                                     * * * * * * * * * * * * * *


Chorus:

e|---------------------------------------------------------------------------|
B|---------------------------------------------------------------------------|
G|------------------6-7---7---7---7---11--11--11--11--9---9---9---9----------|     x2
D|----7---7---7---7-6-7---7---7---7---11--11--11--11--9---9---9---9----------|
A|----7---7---7---7-4-5---5---5---5---9---9---9---9-0-7---7---7---7----------|
E|----5---5---5---5----------------------------------------------------------|

e|---------------------------------------------------------------------------|
B|---------------------------------------------------------------------------|
G|----4-4-4-4-4-4-4-4-7-7-7-7-7-7-7-7-4-4-4-4-4-4-4-4-9----------------------|
D|----4-4-4-4-4-4-4-4-7-7-7-7-7-7-7-7-4-4-4-4-4-4-4-4-9----------------------|
A|----2-2-2-2-2-2-2-2-5-5-5-5-5-5-5-5-2-2-2-2-2-2-2-2-7----------------------|
E|---------------------------------------------------------------------------|


Verse 2 (Guitar 2):

e|----9---------------9---------------9---------------9----------------------|
B|------------10--------------10--------------10--------------10-------------|
G|---------------------------------------------------------------------------|
D|---------------------------------------------------------------------------|
A|---------------------------------------------------------------------------|
E|---------------------------------------------------------------------------|

e|----9---------------9---------------10--------------10---------------------|
B|------------10--------------10--------------10--------------10-------------|
G|---------------------------------------------------------------------------|
D|---------------------------------------------------------------------------|
A|---------------------------------------------------------------------------|
E|---------------------------------------------------------------------------|

(Sorry this part got messy,so look at the roots for the rhythm)

e|---------------------------------------------------------------------------|
B|----1010101010101010101010109-9-9-9-10101010101010101010101011111111-------|
G|---------------------------------------------------------------------------|
D|----7-7-7-7-7-7-7-7-7-7-7-7-6-6-6-6-7-7-7-7-7-7-7-7-7-7-7-7-9-9-9-9--------|
A|---------------------------------------------------------------------------|
E|---------------------------------------------------------------------------|

e|---------------------------------------------------------------------------|
B|----9-9-9-9-9-9-9-9-9-9-9-9-101010107-7-7-7-7-7-7-7-7-7-7-7-7-7-7-7--------|
G|---------------------------------------------------------------------------|
D|----6-6-6-6-6-6-6-6-6-6-6-6-7-7-7-7-4-4-4-4-4-4-4-4-4-4-4-4-4-4-4-4--------|
A|---------------------------------------------------------------------------|
E|---------------------------------------------------------------------------|


Pre-Chorus 2 (Guitar 2): (This is really dissonant but I'm pretty sure its right)

e|----12-13-14-13-12-13-14-13-12-13-14-13-12-13-14-13-12-13-14-13-12-13-14-13-------|
B|----------------------------------------------------------------------------------|
G|----------------------------------------------------------------------------------|
D|----------------------------------------------------------------------------------|
A|----------------------------------------------------------------------------------|
E|----------------------------------------------------------------------------------|


Riff 2 (Guitar 1):

e|---------------------------------------------------------------------------|
B|---------------------------------------------------------------------------|
G|------------------------------------9-9-9-9-9-9-9-9-9-9-9-9-9-9-9-9--------|
D|----9-9-9-9-9-9-9-9-9-9-9-9-9-9-9-9-9-9-9-9-9-9-9-9-9-9-9-9-9-9-9-9--------|
A|----9-9-9-9-9-9-9-9-9-9-9-9-9-9-9-9-7-7-7-7-7-7-7-7-7-7-7-7-7-7-7-7--------|
E|----7-7-7-7-7-7-7-7-7-7-7-7-7-7-7-7----------------------------------------|

e|---------------------------------------------------------------------------|
B|---------------------------------------------------------------------------|
G|---------------------------------------------------------------------------|
D|----6-6-6-6-6-6-6-6-6-6-6-6-6-6-6-6-4-4-4-4-4-4-4-4-4-4-4-4-4-4-4-4--------|
A|----6-6-6-6-6-6-6-6-6-6-6-6-6-6-6-6-4-4-4-4-4-4-4-4-4-4-4-4-4-4-4-4--------|
E|----4-4-4-4-4-4-4-4-4-4-4-4-4-4-4-4-2-2-2-2-2-2-2-2-2-2-2-2-2-2-2-2--------|

e|---------------------------------------------------------------------------|
B|---------------------------------------------------------------------------|
G|----9---9-9-9-9-9-9--------------------------------------------------------|
D|----9---9-9-9-9-9-9--------------------------------------------------------|
A|----7---7-7-7-7-7-7--------------------------------------------------------|
E|---------------------------------------------------------------------------|


Riff 2 (Guitar 2):

e|---------------------------------------------------------------------------|
B|---------------------------------------------------------------------------|
G|----------6-----8-------6---8-------13----11-------------------------------|
D|----9-------------------------------------------9~~~~----------------------|
A|----------4-----6-------4---6-------11----9--------------------------------|
E|----7-------------------------------------------7~~~~----------------------|

e|---------------------------------------------------------------------------|
B|---------------------------------------------------------------------------|
G|----8-----8-----8-------9---8---6---------------------------3--------------|
D|---------------------------------------------------------------------------|
A|----6-----6-----6-------7---6---4---------------------------1--------------|
E|---------------------------------------------------------------------------|

e|---------------------------------------------------------------------------|
B|---------------------------------------------------------------------------|
G|----4---------------9-9---9-10-12-13---------------------------------------|
D|---------------------------------------------------------------------------|
A|----2---------------7-7---7-9--10-11---------------------------------------|
E|---------------------------------------------------------------------------|


Bridge:

e|---------------------------------------------------------------------------|
B|---------------------------------------------------------------------------|
G|---------------------------------------------------------------------------|
D|---------------------------------------------------------------------------|
A|----------------------------------------------------5----------------------|
E|----5---------------2---------------0--------------------------------------|

Song Order:
(Starts with bells chiming)
Riff (Both Guitars) x2
Verse x2  (First time bass plays alone using the root notes of the guitar chords)
Pre-Chorus (Guitar 1 Only) x1
Chorus x1
Riff x1
Verse 2 x2  (Guitar plays both times Verse 1 and the lead guitar part for the verse enters)
Pre-Chorus (Both Guitars) x1
Chorus x1
Riff (Both Guitars) x1
Riff 2 (Both Guitars) x1  (This is basically the Riff up two half steps)
Bridge x1
Chorus x1
Riff (Both Guitars) x2
End on an A5
Tap to rate this tab
# A B C D E F G H I J K L M N O P Q R S T U V W X Y Z