Song name
# A B C D E F G H I J K L M N O P Q R S T U V W X Y Z

Bowling For Soup - Lets Pretend Were Not In Love tab

-------------------------------------------------------------------------------
			  Let's Pretend We're Not In Love - Bowling For Soup
-------------------------------------------------------------------------------
Tabbed by: Darren Cage

Tuning: Standard

Intro
e|---------------------------------------------------------------------------|
B|---------------------------------------------------------------------------|
G|---------------------------------------------------7-7-7-7-7-7-7-----------|
D|-7-7-7-7-7/9/7---4-4-4-4-4/7/9---7-7-7-7-7/9/7/9---7-7-7-7-7-7-7-----------| X2
A|-7-7-7-7-7/9/7---4-4-4-4-4/7/9---7-7-7-7-7/9/7/9---5-5-5-5-5-5-5-----------|
E|-5-5-5-5-5/7/5---2-2-2-2-2/5/7---5-5-5-5-5/7/5/7---------------------------|

Verse
e|----------------------------------------------------------------------------|
B|----------------------------------------------------------------------------|
G|----------6-----------------------------------------------------------------|
D|-7--------6X4------4---------2----------------------------------------------|   (Palm Muted) X4
A|-7X4------4--------4X4-------2X4--------------------------------------------|
E|-5-----------------2---------0----------------------------------------------|

Pre-Chorus 1
e|---------------------------------------------------------------------------|
B|---------------------------------------------------------------------------|
G|--4--------7~--------------------------------------------------------------|
D|--4X8------7~--------------------------------------------------------------|
A|--2--------5~--------------------------------------------------------------|
E|---------------------------------------------------------------------------|

Chorus
e|-----------------------------------------------------------------------------|
B|-----------------------------------------------------------------------------|
G|----------6----------------7-------------------------------------------------|
D|--7-------6X8------4-------7X8-----------------------------------------------| X2
A|--7X8-----4--------4X8-----5-------------------------------------------------|
E|--5----------------2---------------------------------------------------------|


Intro x1

Verse X4

Pre-Chorus 2
e|---------------------------------------------------------------------------|
B|---------------------------------------------------------------------------|
G|--4------------------------------------------------------------------------|
D|--4X8------2---------------------------------------------------------------|  X3
A|--2--------2X8-------------------------------------------------------------|
E|-----------0---------------------------------------------------------------|

Then Pre-Chorus 1

Chorus X2

Bridge
e|---------------------------------------------------------------------------|
B|---------------------------------------------------------------------------|
G|-4-------------------------------------------------------------------------|
D|-4X16------2---------------------------------------------------------------|
A|-2---------2-X16-----------------------------------------------------------|
E|-----------0---------------------------------------------------------------|

e|-----------------------------------------------------------------------------|
B|-----------------------------------------------------------------------------|
G|----------7-----------------9------------------------------------------------|
D|--5-------7X8------7--------9X8----------------------------------------------| X3
A|--5X8-----5--------7X8------7------------------------------------------------|
E|--3----------------5---------------------------------------------------------|

e|-----------------------------------------------------------------------------|
B|-----------------------------------------------------------------------------|
G|----------7~-----------------------------------------------------------------|
D|--5~------7~------2~---------------------------------------------------------|
A|--5~------5~------2~---------------------------------------------------------|
E|--3~--------------0~---------------------------------------------------------|


Pre-Chorus 3
e|----------------|
B|----------------|
G|--4-------------|
D|--4X8------2----|  X2 (Palm Muted)
A|--2--------2X8--|
E|-----------0----|

Then Pre-Chorus 1 (Pick slide At End)

Chorus X4

Ending
e|-------------------------------------------------------------------------------|
B|-------------------------------------------------------------------------------|
G|--4-~------7~------------------------------------------------------------------|
D|--4~-------7~------------------------------------------------------------------|
A|--2~-------5~------------------------------------------------------------------|
E|-------------------------------------------------------------------------------|
Tap to rate this tab
 
# A B C D E F G H I J K L M N O P Q R S T U V W X Y Z