Song name
# A B C D E F G H I J K L M N O P Q R S T U V W X Y Z

Bowling For Soup - Friends Chicks Guitars tab

My 1st tab, great song everyone should know :D
about 99% sure of it

Intro: Guitar 1 Riff

Listen to song for timing but tried to show it here.

e-----------------------------------------------------------------|
B-----------------------------------------------------------------|
D-----------------------------------------------------------------|
G-----------------------------------------------------------------|
A----------4-5--7-4--7-------------------------4-5--7-------------|
E-5--555-7-------------7--777h9-7----5--555-7--------0-000-2-4-5--|


Intro: Guitar 2

e-----------------------------------------------------------------------------------|
B-----------------------------------------------------------------------------------|
D------------77777777--66666666----------------------77777777--99999999-------------|
G-77777777--77777777--66666666--99999999--77777777-77777777--99999999--77777777-----|
A-77777777--55555555--44444444--99999999--77777777-55555555--77777777--77777777-----|
E-55555555------------------------77777777--55555555----------------------55555555--|


Verse 1: Both guitars

e----------------------------------------------------------|
B----------------------------------------------------------|
D--------------7-7----------------------------9-9----------|
G---7-7--------7-7--------9-9-----9/11/ 9-----9-9----------|
A---7-7--------5-5--------9-9-----9/11/ 9-----7-7----------|
E---5-5-------------------7-7-----7/9/  7------------------|


e---------------------------------------------------------------------------|
B---------------------------------------------------------------------------|
D----------------------7777777777777777-------------------9999999999999999--|
G---7777777777777777-7777777777777777-9999999999999999-9999999999999999-----|
A---7777777777777777-5555555555555555-9999999999999999-7777777777777777-----|
E---5555555555555555--------------------7777777777777777--------------------|
   pm-----------------  -----------------    -------------------------------| open


Pre-Chorus: Both Guitars


e----------------------------------------------------------------------------|
B----------------------------------------------------------------------------|
D---77777777-----------77777777-99999999--77777777--------------------99999--|
G---77777777-77777777-77777777-99999999--77777777-77777777-99999999-99999----|
A---55555555-77777777-55555555-77777777--55555555-77777777-99999999-77777----|
E-------------55555555-------------------------------55555555-77777777-------|


Chorus: Both Guitars


e----------------------------------------------------------------------|
B----------------------------------------------------------------------|
D-------------77777777-----------99999999----------77777777-9999999-7--|
G---77777777-77777777-77777777-99999999-77777777-77777777-9999999-7----|
A---77777777-55555555-77777777-77777777-77777777-55555555-7777777-5----|
E---55555555-----------55555555-----------55555555---------------------|


Interlude: Guitar 1 Riff


e-----------------------------------------------------------------|
B-----------------------------------------------------------------|
G-----------------------------------------------------------------|
D-----------------------------------------------------------------|
A----------4-5--7-4--7-------------------------4-5--7-------------|
E-5--555-7-------------7--777h9-7----5--555-7--------0-000-2-4-5--|


Guitar 2

e------------------------------------------------------------------------------------|
B------------------------------------------------------------------------------------|
G------------77777777--66666666-----------------------77777777--99999999-------------|
D-77777777--77777777--66666666--99999999---77777777-77777777--99999999--77777777-----|
A-77777777--55555555--44444444--99999999---77777777-55555555--77777777--77777777-----|
E-55555555------------------------77777777---55555555----------------------55555555--|


Verse 2: Both Guitars


e---------------------------------------------------------------------|
B---------------------------------------------------------------------|
G--------------7-7----------------------------9-9---------------------|
D---7-7--------7-7--------9-9-----9/11/ 9-----9-9---------------------|
A---7-7--------5-5--------9-9-----9/11/ 9-----7-7---------------------|
E---5-5-------------------7-7-----7/9/  7---------------00-2-0-4-5-0--|  Listen for timing
 of part on E string here.


e---------------------------------------------------------------------------|
B---------------------------------------------------------------------------|
G----------------------7777777777777777-------------------9999999999999999--|
D---7777777777777777-7777777777777777-9999999999999999-9999999999999999-----|
A---7777777777777777-5555555555555555-9999999999999999-7777777777777777-----|
E---5555555555555555--------------------7777777777777777--------------------|
   pm-----------------  -----------------    -------------------------------| open


Pre-Chorus: Both Guitars


e----------------------------------------------------------------------------|
B----------------------------------------------------------------------------|
G---77777777-----------77777777-99999999--77777777--------------------99999--|
D---77777777-77777777-77777777-99999999--77777777-77777777-99999999-99999----|
A---55555555-77777777-55555555-77777777--55555555-77777777-99999999-77777----|
E-------------55555555-------------------------------55555555-77777777-------|



Chorus 2: Both Guitars


e--------------------------------------------------------------------------------------------------|
B--------------------------------------------------------------------------------------------------|
G-------------77777777-----------99999999----------77777777-9999999-7--------------------99999999-7|
D---77777777-77777777-77777777-99999999-77777777-77777777-9999999-7----------77777777-99999999-7---|
A---77777777-55555555-77777777-77777777-77777777-55555555-7777777-5----------77777777-77777777-5---|
E---55555555-----------55555555-----------55555555------------------------------55555555-----------|

e--------------------------------------------|
B--------------------------------------------|
G---------------------7777777777777777-------|
D---5555555555555555-7777777777777777--------|
A---5555555555555555-5555555555555555--------|
E---3333333333333333-------------------------|


Bridge/Guitar Solo: Guitar 1


e-----------------------------|
B-----------------------------|
D-------------6-7-9--9b(11)9--|
G-----7---7-9-----------------|
A-----------------------------|
E-----------------------------|


Bridge/Guitar Solo: Guitar 2

e--------------------------------------------------------------------------------------------------|
B--------------------------------------------------------------------------------------------------|
D-------------------------9999999999999999---------------------7777777777777777--------------------|
G-----7777777777777777--9999999999999999--5555555555555555--7777777777777777--7777777777777777-----|
A-----7777777777777777--7777777777777777--5555555555555555--5555555555555555--7777777777777777-----|
E-----5555555555555555----------------------3333333333333333---------------------5555555555555555--|


e--------------------------------------------------------------------------------|
B--------------------------------------------------------------------------------|
D---9999999999999999--5555555555555555--7777777777777777----------------------9--|
G---9999999999999999--5555555555555555--7777777777777777--9999999999999999---9---|
A---7777777777777777--3333333333333333--5555555555555555--9999999999999999---7---|
E--------------------------------------------------------------7777777777777777--|
                                                                                         
                                                                let ring out


Chorus 3: Both Guitars


e----------------------------------------------------------------------|
B----------------------------------------------------------------------|
D-------------77777777-----------99999999----------77777777-9999999-7--|
G---77777777-77777777-77777777-99999999-77777777-77777777-9999999-7----|
A---77777777-55555555-77777777-77777777-77777777-55555555-7777777-5----|
E---55555555-----------55555555-----------55555555---------------------|
  pm --------  --------- ---------  --------- --------- --------- ------- open


Outro: Guitar 1


e----5-5------4/5--------12-12----------11/12--------------------------------|
B----5-5------4/5--------12-12----------11/12--------------------------------|
D--------7--5-------------------14--12------------7-7---9-9------------------|       X3
G--------------------------------------------------7-7---9-9----7------------|
A--------------------------------------------------5-5---7-7----7------------|
E----------------------------------------------------------------5-----------|
                                                                                         
     *3rd time           *3rd time only
                                                                                           slow down


Outro: Guitar 2

e------------------------------------------------------------------------------|
B------------------------------------------------------------------------------|
D---------------99999999------------7-7---9-9----------------------------------|      X3
G---77777777---99999999------------7-7---9-9--------------7--------------------|
A---77777777---77777777------------5-5---7-7--------------7--------------------|
E---55555555-----------------------------------------------5-------------------|
                                                                    *3rd time         *3rd time only
                                                                      slow down



Ok thats the whole song, enjoy playing and listen to the song for rhythms and stuff.  
Friends Chicks Guitars is on their newest album "Fishin for Woos". Bowling for Soup Rock! 
Mikey :D
Tap to rate this tab
 
# A B C D E F G H I J K L M N O P Q R S T U V W X Y Z