Song name
# A B C D E F G H I J K L M N O P Q R S T U V W X Y Z

Bowling For Soup - Shut Up And Smile tab

Verse:

----------------------------------------------------------------------------------|    x2
----------------------------------------------------------------------------------|
--------------------------------------4-4-4-4-4-4--4-4----------------------------|
--0-0-0-0-0-0--0-0--4-4-4-4-4-4--4-4--4-4-4-4-4-4--4-4---2-2-2-2-2-2--2-/4-0------|
--0-0-0-0-0-0--0-0--4-4-4-4-4-4--4-4--2-2-2-2-2-2--2-2---2-2-2-2-2-2--2-/4-0------|
--0-0-0-0-0-0--0-0--4-4-4-4-4-4--4-4---------------------2-2-2-2-2-2--2-/4-0------|

Instead of the last slide riff, play:

-----------------------------------------|
-----------------------------------------|
-----------------------------------------|
-2-2-2-2-2-2--5--5--5--5--7-7-7-7-7-7-7--|
-2-2-2-2-2-2--5--5--5--5--7-7-7-7-7-7-7--|
-2-2-2-2-2-2--5--5--5--5--7-7-7-7-7-7-7--|

Chorus:

Gtr. 1

-------------------------------------------------------------------------|
-------------------------------------------------------------------------|
-------------------------------------------------------------------------|
-0-0-0-0-0-0-0-0--5-5-5-5-5-5-5-5--0-0-0-0-0-0-0-0--5-5-5-5-5-5-5-5------|
-0-0-0-0-0-0-0-0--5-5-5-5-5-5-5-5--0-0-0-0-0-0-0-0--5-5-5-5-5-5-5-5------|
-0-0-0-0-0-0-0-0--5-5-5-5-5-5-5-5--0-0-0-0-0-0-0-0--5-5-5-5-5-5-5-5------|

-------------------------------------------------------------------------|
-------------------------------------------------------------------------|
-------------------------------------------------------------------------|
-2-2-2-2-2-2-2-2--5-5-5-5-5-5-5-5--2-2-2-2-2-2-2-2--5-5-5-5-5-5-5-5------|
-2-2-2-2-2-2-2-2--5-5-5-5-5-5-5-5--2-2-2-2-2-2-2-2--5-5-5-5-5-5-5-5------|
-2-2-2-2-2-2-2-2--5-5-5-5-5-5-5-5--2-2-2-2-2-2-2-2--5-5-5-5-5-5-5-5------|

Gtr. 2

-------------------------------------------------------------------------|
-------------------------------------------------------------------------|
-------------------------------------------------------------------------|
-------------------------------------------------------------------------|
-5--5--5--5--9--7--5--4---2--2--2--2-------------------------------------|
---------------------------------------7--5-5--4--5----------------------|

Gtr.1/2

----------------------------------------------------------------------------------|
----------------------------------------------------------------------------------|
----------------------------------------------------------------------------------|
-2-2-2-2-2-2-2-2--5-5-5-5-5-5-5-5--2-2-2-2-2-2-2-2--5-5-5-5-5-5-5-5--7-7-7-7------|
-2-2-2-2-2-2-2-2--5-5-5-5-5-5-5-5--2-2-2-2-2-2-2-2--5-5-5-5-5-5-5-5--7-7-7-7------|
-2-2-2-2-2-2-2-2--5-5-5-5-5-5-5-5--2-2-2-2-2-2-2-2--5-5-5-5-5-5-5-5--7-7-7-7------|

*Back To Verse, Then Chorus*

Bridge:

Gtr. 1

---------------------------------------------------------------------------|  x3
-3-3-33-3-3-3--3-3-33-3-3-3--3-3-33-3-3-3--3-3-33-3-3-5-3------------------|
-4-4-44-4-4-4--4-4-44-4-4-4--4-4-44-4-4-4--4-4-44-4-4-4-4------------------|
---------------------------------------------------------------------------|
---------------------------------------------------------------------------|
---------------------------------------------------------------------------|

After every 3 whole lines end with instead of the last group of notes:

-------------------------------------------------------------------------|
-3-3-33-5-5-5-3----------------------------------------------------------|
-4-4-44-4-4-4-4----------------------------------------------------------|
-------------------------------------------------------------------------|
-------------------------------------------------------------------------|
-------------------------------------------------------------------------|

Gtr. 2

----------------------------------------------------------------------------|   x3
----------------------------------------------------------------------------|
----------------------------------------------------------------------------|
----------------------------------------------------------------------------|
-5--5--5--5-----------------------------------------------------------------|
------------9--9--9--9---5--5--5--5---7--7--7--7----------------------------|

Gtr. 1/2

-------------------------------------------------------------------------|
-------------------------------------------------------------------------|
-7-7-7-7-7-7-7-7--4-4-4-4-4-4-4-4----------------------------------------|
-7-7-7-7-7-7-7-7--4-4-4-4-4-4-4-4--5-5-5-5-5-5-5-5--7-7-7-7-7-7-7-7------|
-5-5-5-5-5-5-5-5--2-2-2-2-2-2-2-2--5-5-5-5-5-5-5-5--7-7-7-7-7-7-7-7------|
-----------------------------------5-5-5-5-5-5-5-5--7-7-7-7-7-7-7-7------|

Gtr. 1

-------------------------------------------------------------------------|
-------------------------------------------------------------------------|
-------------------------------------------------------------------------|
-5-5-5-5-5-5-5-5---------------------------------------------------------|
-5-5-5-5-5-5-5-5---------------------------------------------------------|
-5-5-5-5-5-5-5-5---------------------------------------------------------|

*Chorus*

Outro:

-------------------------------------------------------------------------|
-------------------------------------------------------------------------|
-7-7-7-7-7-7-7-7---------------------------------------------------------|
-7-7-7-7-7-7-7-7--5-5-5-5-5-5-5-5----------------------------------------|
-5-5-5-5-5-5-5-5--5-5-5-5-5-5-5-5----------------------------------------|
------------------5-5-5-5-5-5-5-5----------------------------------------|
Tap to rate this tab
 
# A B C D E F G H I J K L M N O P Q R S T U V W X Y Z