Guitaretab - guitar tabs
Song name
# A B C D E F G H I J K L M N O P Q R S T U V W X Y Z

Bowling For Soup - Bfff tab

this is my first tab ive ever tabed... cos that made sense xD
I'm 98% sure this is right
Tabed by Awesomelad609

Song: BFFF
band: bowling for soup

Tuning setting: standard (eADGBE)
 
key: 
p.m - palm mute
x   - Dead note

intro
with reverbe effect
e|---------------------------------|
B|---------------------------------|
G|---------------------------------| (x2)
D|--55-55--4--55-55--7-------------|
A|--55-55--2--33-33--5-------------|
E|---------------------------------|

turn reverbe off here
e|---------------------------------|
B|---------------------------------|
G|---------4--55-55--7-------------| (x2)
D|--55-55--4--55-55--7-------------|
A|--55-55--2--33-33--5-------------|
E|--33-33--------------------------|

Verse
e|------------------------------|
B|------------------------------|
G|------------5555555-55--------| (x4)
D|--55555555--5555555-55--------|
A|--55555555--3333333-33--------|
E|--33333333--------------------|
p.m ........  .......

e|-----------------------------|
B|-----------------------------|
G|-----------5555-7777---------| (x4)
D|--55555555-5555-7777---------|
A|--55555555-3333-5555---------|
E|--33333333-------------------|


bridge

e|---------------------------------|
B|---------------------------------|
G|---------4--55-55--7-------------| (x2)
D|--55-55--4--55-55--7-------------|
A|--55-55--2--33-33--5-------------|
E|--33-33--------------------------|
[ Tab from: http://www.guitaretab.com/b/bowling-for-soup/318196.html ]
Chorus   
e|----------------------------------------|
B|----------------------------------------|
G|--55555555--77777777--------------------|
D|--55555555--77777777-55555555--22222222-| 
A|--33333333--55555555-55555555--22222222-|
E|---------------------33333333--00000000-|

e|-----------------------------------------|
B|-----------------------------------------|
G|--55555555--77777777-------5-------5-----|
D|--55555555--77777777-55x55x5-55x55x5-----| 
A|--33333333--55555555-55x55x3-55x55x3-----|
E|---------------------33x33x--33x33x------|

e|----------------------------------------|
B|----------------------------------------|
G|--55555555--77777777--------------------|
D|--55555555--77777777-55555555--22222222-| 
A|--33333333--55555555-55555555--22222222-|
E|---------------------33333333--00000000-|

e|---------------|
B|---------------|
G|--55555555--7--|
D|--55555555--7--| 
A|--33333333--5--|
E|---------------|

bridge
Verse
Chorus

play this at end of chorus
e|-------------------------------------|
B|-------------------------------------|
G|--5--7-------------------------------|
D|--5--7-------------------------------|
A|--3--5-------------------------------|
E|-------------------------------------|

Bridge

Verse
Chorus

end
e|-------------------|
B|-------------------|
G|--3----------------|
D|--3----------------|
A|--1----------------|
E|-------------------|


recap on order:

intro
verse 
Bridge
Chorus
Bridge
Verse
Chorus (with that bit at the end)
Bridge
Verse
chorus
End
Related for Bfff tab
Bfff chords by Bowling For Soup