Song name
# A B C D E F G H I J K L M N O P Q R S T U V W X Y Z

Bowling For Soup - Belguim tab

Tabbed out by Charlotte_Punk

Intro:
e|------------------------------------|
B|------------------------------------|
G|------7--5--9-7---------------------|
D|---5--7--5--9-7---------------------|
A|---5--5--3--7-5---------------------|
E|---3--------------------------------|

Verse:
e|------------------------------------|
B|------------------------------------|
G|------7--5--9-7---------------------|
D|---5--7--5--9-7---------------------|
A|---5--5--3--7-5---------------------|
E|---3--------------------------------|

Chorus:
e|------------------------------------|
B|------------------------------------|
G|---------7777--9999--55--77---------|
D|---5555--7777--9999--55--77---------|
A|---5555--5555--7777--33--55---------|
E|---3333-----------------------------|

have fun!!!! ne corrections , comments mail to Global_prankster@hotmail.com
Tap to rate this tab
# A B C D E F G H I J K L M N O P Q R S T U V W X Y Z