Song name
# A B C D E F G H I J K L M N O P Q R S T U V W X Y Z

Bowling For Soup - Lets Go To The Pub tab

Song: Let's Go to the Pub
Artist: Bowling For Soup
Album: One Big Happy
Year: 2012

Meh, cool song.  Needs a tab... blah, blah, blah, etc.
Here it is!


Riff (Guitar 1) 

e|---------------------------------------------------------------------------|
B|---------------------------------------------------------------------------|
G|--------------------2-2-2-2-2-2-2-2----------------------------------------|
D|----2-2-2-2-2-2-2-2-2-2-2-2-2-2-2-2----------------------------------------|
A|----2-2-2-2-2-2-2-2-0-0-0-0-0-0-0-0----------------------------------------|
E|----0-0-0-0-0-0-0-0--------------------------------------------------------|
Mute:   * * * * * * *   * * * * * * * 


Riff (Guitar 2)  (Can use a pitch shifter like in the recording)

e|---------------------------------------------------------------------------|
B|---------------------------------------------------------------------------|
G|---------------------------------------------------------------------------|
D|--------------------------4h6----------------------------------------------|
A|--------6---6h7-----0-----------7------------------------------------------|
E|----0----------------------------------------------------------------------|

Verse

e|---------------------------------------------------------------------------|
B|---------------------------------------------------------------------------|
G|----2-2-2-2-2-2-2-------------------4-4-4-4-4-4-4-6-6-6-6-6-6-6-6-6--------|
D|----2-2-2-2-2-2-2-2-2-2-2-2-2-2-2-2-4-4-4-4-4-4-4-6-6-6-6-6-6-6-6-6--------|
A|----0-0-0-0-0-0-0-2-2-2-2-2-2-2-2-2-2-2-2-2-2-2-2-4-4-4-4-4-4-4-4-4--------|
E|------------------0-0-0-0-0-0-0-0-0----------------------------------------|
Mute:   * * * * * *   * * * * * * * *   * * * * * *   * * * * * * * * 

e|---------------------------------------------------------------------------|
B|---------------------------------------------------------------------------|
G|----2-2-2-2-2-2-2-------------------4-4-4-4-4-4-4--------------------------|
D|----2-2-2-2-2-2-2-2-2-2-2-2-2-2-2-2-4-4-4-4-4-4-4-7-7-7-7-7-7-7-6----------|
A|----0-0-0-0-0-0-0-2-2-2-2-2-2-2-2-2-2-2-2-2-2-2-2-7-7-7-7-7-7-7-6----------|
E|------------------0-0-0-0-0-0-0-0-0---------------5-5-5-5-5-5-5-4----------|
Mute:   * * * * * *   * * * * * * * *   * * * * * *   * * * * * *     

e|---------------------------------------------------------------------------|
B|---------------------------------------------------------------------------|
G|----2-2-2-2-2-2-2-------------------4-4-4-4-4-4-4-6-6-6-6-6-6-6-6-6--------|
D|----2-2-2-2-2-2-2-2-2-2-2-2-2-2-2-2-4-4-4-4-4-4-4-6-6-6-6-6-6-6-6-6--------|
A|----0-0-0-0-0-0-0-2-2-2-2-2-2-2-2-2-2-2-2-2-2-2-2-4-4-4-4-4-4-4-4-4--------|
E|------------------0-0-0-0-0-0-0-0-0----------------------------------------|
Mute:   * * * * * *   * * * * * * * *   * * * * * *   * * * * * * * * 

e|---------------------------------------------------------------------------|
B|---------------------------------------------------------------------------|
G|------------------------------------4--------------------------------------|
D|----4~~~~~--------------------------4-(Short)------------------------------|
A|----4~~~~~--------------------------2--------------------------------------|
E|----2~~~~~-----------------------------------------------------------------|


Chorus

e|---------------------------------------------------------------------------|
B|---------------------------------------------------------------------------|
G|----------------2-----------4---4------------------------------------------|     x2
D|----2---x--xxx--2---2---x--x4---4------------------------------------------|
A|----2---x--xxx--0---2---x--x2---2------------------------------------------|
E|----0---x--xxx------0---x--x-----------------------------------------------|

e|---------------------------------------------------------------------------|
B|---------------------------------------------------------------------------|
G|----6-------6---------------------------------------4----------------------|
D|----6-------6-------6-------6-------7-------7-------4----------------------|
A|----4-------4-------6-------6-------7-------7-------2----------------------|
E|--------------------4-------4-------5-------5------------------------------|


Bridge

e|---------------------------------------------------------------------------|
B|---------------------------------------------------------------------------|
G|----6-------6-----------------------2-------2------------------------------|
D|----6-------6-----------------------2-------2------------------------------|
A|----4-------4-----------------------0-------0------------------------------|
E|---------------------------------------------------------------------------|

e|---------------------------------------------------------------------------|
B|---------------------------------------------------------------------------|
G|------------------------------------4-------4-------4----------------------|
D|----2-------2-----------------------4-------4-------4-------6--------------|
A|----2-------2-----------------------2-------2-------2-------6--------------|
E|----0-------0-----------------------------------------------4--------------|

e|---------------------------------------------------------------------------|
B|---------------------------------------------------------------------------|
G|----6-------6-----------------------2-------2------------------------------|
D|----6-------6-----------------------2-------2------------------------------|
A|----4-------4-----------------------0-------0------------------------------|
E|---------------------------------------------------------------------------|

e|---------------------------------------------------------------------------|
B|---------------------------------------------------------------------------|
G|------------------------------------4--------------------------------------|
D|----2-------2-----------------------4-------(Gary Rambles Beautifully)-----|
A|----2-------2-----------------------2--------------------------------------|
E|----0-------0--------------------------------------------------------------|


Final Chorus

e|---------------------------------------------------------------------------|
B|---------------------------------------------------------------------------|
G|------------------2-2-2-2-2-2-2-2-2---------------4-4-4-4-4-4-4-4-4--------|     x2
D|----2-2-2-2-2-2-2-2-2-2-2-2-2-2-2-2-2-2-2-2-2-2-2-4-4-4-4-4-4-4-4-4--------|
A|----2-2-2-2-2-2-2-0-0-0-0-0-0-0-0-0-2-2-2-2-2-2-2-2-2-2-2-2-2-2-2-2--------|
E|----0-0-0-0-0-0-0-------------------0-0-0-0-0-0-0--------------------------|

e|---------------------------------------------------------------------------|
B|---------------------------------------------------------------------------|
G|----6-6-6-6-6-6-6---------------------------------4-4-4-4-4-4-4-4-4--------|     x2 
D|----6-6-6-6-6-6-6-6-6-6-6-6-6-6-6-6-7-7-7-7-7-7-7-4-4-4-4-4-4-4-4-4--------|
A|----4-4-4-4-4-4-4-6-6-6-6-6-6-6-6-6-7-7-7-7-7-7-7-2-2-2-2-2-2-2-2-2--------|
E|------------------4-4-4-4-4-4-4-4-4-5-5-5-5-5-5-5--------------------------|



Song Order:
Riff (Both Guitars) x2  (Do not play the muted notes in guitar 1)
Riff (Both Guitars) x2  (Play mutes and tempo doubles)
Verse               x1
Chorus              x1
Riff (Both Guitars) x2  (Do not play the muted notes in guitar 1)
Riff (Both Guitars) x2  (Play mutes and tempo doubles)
Verse               x1
Chorus              x1
Riff (Both Guitars) x4  (Do not play the muted notes in guitar 1)
Bridge              x1
Final Chorus        x1  (But Only play first B on second time)
Riff (Both Guitars) x4  (Do not play the muted notes in guitar 1)
Tap to rate this tab
# A B C D E F G H I J K L M N O P Q R S T U V W X Y Z