Song name
# A B C D E F G H I J K L M N O P Q R S T U V W X Y Z

Bowling For Soup - S-s-s-saturday tab

-------------------------------------------------------------------------------
                             S-S-S-Saturday - Bowling for Soup
-------------------------------------------------------------------------------
Tabbed by: Fred Chandler
E-mail: fred.chandler@sky.com

Tuning:E-Standard

Intro riff (palm muted)

e|-------------------------------------------------------------------|
B|--3-3-3-3----------------------------------------------------------|
G|--2-2-2-2-2-2-2-2-0-0-4-4-2-2-2-2-0-0-4-4-2-2----------------------|
D|----------0-0-0-0-0-0-0-0-0-0-0-0-0-0-0-0-0-0-4-4-2-2-2-2-2-2-2-2--|
A|----------------------------------------------0-0-0-0-0-0-0-0-0-0--|
E|-------------------------------------------------------------------|

Verse (palm muted)

e|-------------------------------------------------------------------|
B|-------------------------------------------------------------------|
G|-------------------------------------------------------------------|
D|--7-7-7-7-7-7-7-7-7-7-7-7-7-7-7-7-7-7-7-7-7-7-7-7------------------|
A|--5-5-5-5-5-5-5-5-5-5-5-5-5-5-5-5-5-5-5-5-5-5-5-5-7-7-7-7-5-5-5-5--|
E|--------------------------------------------------5-5-5-5-3-3-3-3--|

Pre-Chorus

e|------------------------------------------------------------------|
B|------------------------------------------------------------------|
G|------------------------------------------------------------------|
D|--4---4-4---4-4---------------------------------------------------|
A|--2---2-2---2-2--2---2-2---2-2---5---5-5---5-5-5---7-7-7-7-7-7-7--|
E|-----------------0---0-0---0-0---3---3-3---3-3-3---5-5-5-5-5-5-5--|

Chorus (listen for the strumming patterns)

e|-------------------------------------------------------------------|
B|-------------------------------------------------------------------|
G|--7-7-7-7-7-7-7-7-----------------7-7-7-7-7-7-7-7------------------|
D|--7-7-7-7-7-7-7-7-7-7-7-7-7-7-7-7-7-7-7-7-7-7-7-7-7-7-7-7-5-5-5-5--|
A|--5-5-5-5-5-5-5-5-7-7-7-7-5-5-5-5-5-5-5-5-5-5-5-5-7-7-7-7-5-5-5-5--|
E|------------------5-5-5-5-3-3-3-3-----------------5-5-5-5-3-3-3-3--|

-----------------------------------------------------|
-----------------------------------------------------|
-----------------------------------------------------|
--9-9-9-9-9-9-9-9-7-7-7-7-7-7-7-7-5-5-5-5-5-5-5-5-5--|
--9-9-9-9-9-9-9-9-7-7-7-7-7-7-7-7-5-5-5-5-5-5-5-5-5--|
--7-7-7-7-7-7-7-7-5-5-5-5-5-5-5-5-3-3-3-3-3-3-3-3-3--|

Bridge

e|----------------------------------------------------------------|
B|----------------------------------------------------------------|
G|----------------------------------------------------------------|
D|-----------------2---2-2---2-2-------------------2---2-2---2-2--|
A|-2---2-2---2-2---0---0-0---0-0---2---2-2---2-2---0---0-0---0-0--|
E|-0---0-0---0-0-------------------0---0-0---0-0------------------|

----------------------------------------------------|
----------------------------------------------------|
----------------------------------------------------|
-----------------2---2-2---2-2-------------------7--|
-2---2-2---2-2---0---0-0---0-0---5-5-5-5-5-5-5-5-7--|
-0---0-0---0-0-------------------3-3-3-3-3-3-3-3-5--|
Tap to rate this tab
# A B C D E F G H I J K L M N O P Q R S T U V W X Y Z