Song name
# A B C D E F G H I J K L M N O P Q R S T U V W X Y Z

Bowling For Soup - Envy tab

Song: Envy
Artist: Bowling For Soup
Album: Lunch. Drunk. Love.
Year: 2013

The ending on this is probably my favorite part of the entire album.  Still trying 
to tab as much of this album as I can before I get too busy.  Enjoy!


Riff (Guitar 1):

e|---------------------------------------------------------------------------|
B|---------------------------------------------------------------------------|
G|------------------------------------5-------5---5-------5---5---5----------|
D|----5-------5---5-------5---5---5---5-------5---5-------5---5---5----------|
A|----5-------5---5-------5---5---5---3-------3---3-------3---3---3----------|
E|----3-------3---3-------3---3---3------------------------------------------|

e|---------------------------------------------------------------------------|
B|---------------------------------------------------------------------------|
G|----3-------3---3-------3---3---3------------------------------------------|
D|----3-------3---3-------3---3---3---3-------3---3-------3---3---3----------|
A|----1-------1---1-------1---1---1---3-------3---3-------3---3---3----------|
E|------------------------------------1-------1---1-------1---1---1----------|


Riff (Guitar 2):(To save space I placed the two lead octaves on the same tab.  Only play one.)

e|------------3-------1---------------1-----------1-----------1---3----------|
B|----------------------------3---------------3-----------3------------------|
G|----0----------------------------------------------------------------------|
D|------------5-------3---------------3-----------3-----------3---5----------|
A|----------------------------5---------------5-----------5------------------|
E|----3----------------------------------------------------------------------|

e|------------3-------1------------------------------------------------------|
B|----------------------------3-------1-----------1------------1---3---------|
G|----0---------------------------------------3------------3-----------------|
D|------------5-------3------------------------------------------------------|
A|----------------------------5-------3-----------3------------3---5---------|
E|----3---------------------------------------6------------6-----------------|


Verse (Guitar 1):

e|---------------------------------------------------------------------------|
B|---------------------------------------------------------------------------|
G|------------------------------------5---5---5---5---5---5---5---5----------|
D|----5---5---5---5---5---5---5---5---5---5---5---5---5---5---5---5----------|
A|----5---5---5---5---5---5---5---5---3---3---3---3---3---3---3---3----------|
E|----3---3---3---3---3---3---3---3------------------------------------------|
Mute: *   *   *   *   *   *   *   *   *   *   *   *   *   *   *   *

e|---------------------------------------------------------------------------|
B|---------------------------------------------------------------------------|
G|----3---3---3---3---3---3---3---3------------------------------------------|
D|----3---3---3---3---3---3---3---3---3---3---3---3---3---3---3---3----------|
A|----1---1---1---1---1---1---1---1---3---3---3---3---3---3---3---3-----------
E|------------------------------------1---1---1---1---1---1---1---1----------|
Mute: *   *   *   *   *   *   *   *   *   *   *   *   *   *   *   *


Verse (Guitar 2):    (Second Verse Only)

e|----------------3--------------------------------3-------------------------|
B|------------3---------------3---------------3---------------3--------------|
G|----0-------------------------------5--------------------------------------|
D|---------------------------------------------------------------------------|
A|---------------------------------------------------------------------------|
E|---------------------------------------------------------------------------|

e|----------------1-------------------------------1--------------------------|
B|------------1---------------1---------------1---------------1--------------|
G|----3----------------------------------------------------------------------|
D|------------------------------------3--------------------------------------|
A|---------------------------------------------------------------------------|
E|---------------------------------------------------------------------------|


Pre-Chorus:

e|---------------------------------------------------------------------------|
B|---------------------------------------------------------------------------|
G|----5-------------------------------7--------------------------------------|
D|----5-------------------------------7--------------------------------------|
A|----3-------------------------------5--------------------------------------|
E|---------------------------------------------------------------------------|

e|---------------------------------------------------------------------------|
B|---------------------------------------------------------------------------|
G|----9-------------------------------2-2-2-2-2-2-2-2-2-2-2-2-2-2-2-2--------|
D|----9-------------------------------2-2-2-2-2-2-2-2-2-2-2-2-2-2-2-2--------|
A|----7-------------------------------0-0-0-0-0-0-0-0-0-0-0-0-0-0-0-0--------|
E|---------------------------------------------------------------------------|


Chorus:

e|---------------------------------------------------------------------------|
B|---------------------------------------------------------------------------|
G|------------------------------------5---5---5---5---5---5---5---5----------|     x3
D|----5---5---5---5---5---5---5---5---5---5---5---5---5---5---5---5----------|
A|----5---5---5---5---5---5---5---5---3---3---3---3---3---3---3---3----------|
E|----3---3---3---3---3---3---3---3------------------------------------------|

e|---------------------------------------------------------------------------|
B|---------------------------------------------------------------------------|
G|------------------------------------7---7---7---7---7---7---7---7----------|
D|----7---7---7---7---7---7---7---7---7---7---7---7---7---7---7---7----------|
A|----7---7---7---7---7---7---7---7---5---5---5---5---5---5---5---5----------|
E|----5---5---5---5---5---5---5---5------------------------------------------|


Post Chorus (Guitar 1):

e|---------------------------------------------------------------------------|
B|---------------------------------------------------------------------------|
G|----5---5---5---5---5---5---5---5---5---5---5---5---5---5---5---5----------|
D|----5---5---5---5---5---5---5---5---5---5---5---5---5---5---5---5----------|
A|----3---3---3---3---3---3---3---3---3---3---3---3---3---3---3---3----------|
E|---------------------------------------------------------------------------|


e|---------------------------------------------------------------------------|
B|---------------------------------------------------------------------------|
G|----7---7---7---7---7---7---7---7---7---7---7---7---7---7---7---7----------|
D|----7---7---7---7---7---7---7---7---7---7---7---7---7---7---7---7----------|
A|----5---5---5---5---5---5---5---5---5---5---5---5---5---5---5---5----------|
E|---------------------------------------------------------------------------|


e|---------------------------------------------------------------------------|
B|---------------------------------------------------------------------------|
G|----5---5---5---5---5---5---5---5---7--------------------------------------|
D|----5---5---5---5---5---5---5---5---7--------------------------------------|
A|----3---3---3---3---3---3---3---3---5--------------------------------------|
E|---------------------------------------------------------------------------|


Post Chorus (Guitar 2):

e|---------------------------------------------------------------------------|
B|---------------------------------------------------------------------------|
G|----9---9---9---9---7---7---7---7---5---5---5---5---12--12--12--12---------|
D|---------------------------------------------------------------------------|
A|----7---7---7---7---5---5---5---5---3---3---3---3---10--10--10--10---------|
E|---------------------------------------------------------------------------|


e|---------------------------------------------------------------------------|
B|---------------------------------------------------------------------------|
G|----11--11--11--11--9---9---9---9---7---7---7---7---5---5---5---5----------|
D|---------------------------------------------------------------------------|
A|----9---9---9---9---7---7---7---7---5---5---5---5---3---3---3---3----------|
E|---------------------------------------------------------------------------|


e|---------------------------------------------------------------------------|
B|---------------------------------------------------------------------------|
G|----9---9---9---9---7---7---7---7---12-------------------------------------|
D|---------------------------------------------------------------------------|
A|----7---7---7---7---5---5---5---5---10-------------------------------------|
E|---------------------------------------------------------------------------|


Bridge: (Spacing shortened for size saving)

e|---------------------------------------------------------------------------|
B|---------------------------------------------------------------------------|
G|----9-9-9-9-9-9-9-9-9-9-9-9-9-9-9-9----------------------------------------|
D|----9-9-9-9-9-9-9-9-9-9-9-9-9-9-9-9-7-7-7-7-7-7-7-7-7-7-7-7-7-7-7-7--------|
A|----7-7-7-7-7-7-7-7-7-7-7-7-7-7-7-7-7-7-7-7-7-7-7-7-7-7-7-7-7-7-7-7--------|
E|------------------------------------5-5-5-5-5-5-5-5-5-5-5-5-5-5-5-5--------|
Mute: * * * *   * * * * * * *   * * * * * * *   * * * * * * *   * * *

e|---------------------------------------------------------------------------|
B|---------------------------------------------------------------------------|
G|----5-5-5-5-5-5-5-5-5-5-5-5-5-5-5-5-7-7-7-7-7-7-7-7-7-7-7-7-7-7-7-7--------|
D|----5-5-5-5-5-5-5-5-5-5-5-5-5-5-5-5-7-7-7-7-7-7-7-7-7-7-7-7-7-7-7-7--------|
A|----3-3-3-3-3-3-3-3-3-3-3-3-3-3-3-3-5-5-5-5-5-5-5-5-5-5-5-5-5-5-5-5--------|
E|---------------------------------------------------------------------------|
Mute: * * * *   * * * * * * *   * * * * * * *   * * * * * * *   *   *

e|---------------------------------------------------------------------------|
B|---------------------------------------------------------------------------|
G|----9-9-9-9-9-9-9-9-9-9-9-9-9-9-9-9----------------------------------------|
D|----9-9-9-9-9-9-9-9-9-9-9-9-9-9-9-9-7-7-7-7-7-7-7-7-7-7-7-7-7-7-7-7--------|
A|----7-7-7-7-7-7-7-7-7-7-7-7-7-7-7-7-7-7-7-7-7-7-7-7-7-7-7-7-7-7-7-7--------|
E|------------------------------------5-5-5-5-5-5-5-5-5-5-5-5-5-5-5-5--------|
Mute: * *   * * *   * * *   * * *   * * *   * * *   * * *   * * *   *

e|---------------------------------------------------------------------------|
B|---------------------------------------------------------------------------|
G|----5-5-5-5-5-5-5-5-5-5-5-5-5-5-5-5-7-7-7-7-7-7-7-7-7-7-7-7-7-7-7-7--------|
D|----5-5-5-5-5-5-5-5-5-5-5-5-5-5-5-5-7-7-7-7-7-7-7-7-7-7-7-7-7-7-7-7--------|
A|----3-3-3-3-3-3-3-3-3-3-3-3-3-3-3-3-5-5-5-5-5-5-5-5-5-5-5-5-5-5-5-5--------|
E|---------------------------------------------------------------------------|
Mute: * *   * * *   * * *   * * *   * 



Acoustic Outro:

e|----3-------3-----x-3-------3-----x-3-------3-----x------------------------|
B|----3-------3-----x-3-------3-----x-3-------3-----x------------------------|
G|----0-------0-----x-0-------0-----x-0-------0-----x------------------------|
D|----2-------2-----x-0-------0-----x-2-------2-----x-----0h2----------------|
A|----3-------3-----x-2-------2-----x-3-------3-----x-0h2--------------------|
E|------------------x-3-------3-----x---------------x------------------------|


e|----2-------2-----2-2-------2-----2-2-------2------------------------------|
B|----3-------3-----3-3-------3-----3-3-------3------------------------------|
G|----2-------2-----2-2-------2-----2-2-------2------------------------------|
D|----0-------0-----0-0-------0-----0-0-------0------------------------------|
A|----------------------------------------------------0-------2--------------|
E|---------------------------------------------------------------------------|

e|----3-------3-----x-3-------3-----x-3-------3-----x------------------------|
B|----3-------3-----x-3-------3-----x-3-------3-----x------------------------|
G|----0-------0-----x-0-------0-----x-0-------0-----x------------------------|
D|----2-------2-----x-0-------0-----x-2-------2-----x-----0h2----------------|
A|----3-------3-----x-2-------2-----x-3-------3-----x-0h2--------------------|
E|------------------x-3-------3-----x---------------x------------------------|


e|----2-------2-----x-3-------3-----x-2-------2-----x-0----------------------|
B|----3-------3-----x-3-------3-----x-3-------3-----x-1----------------------|
G|----2-------2-----x-0-------0-----x-2-------2-----x-0----------------------|
D|----0-------0-----x-2-------2-----x-0-------0-----x-2----------------------|
A|------------------x-3-------3-----x---------------x-3-------2--------------|
E|------------------x---------------x---------------x------------------------|

e|----0---------------0-------------0-0-------0-------0-----0----------------|
B|----1---------------1-------------1-1-------1-------1-----1----------------|
G|----2---------------2-------------2-2-------2-------2-----2----------------|
D|----2---------------2-------------2-2-------2-------2-----2----------------|
A|----0---------------0-------------0-0-------0-------0-----0-2--------------|
E|---------------------------------------------------------------------------|

e|----0-------0-----x-2-------2-----x-3--------------------------------------|
B|----1-------1-----x-3-------3-----x-3--------------------------------------|
G|----0-------0-----x-2-------2-----x-0--------------------------------------|
D|----2-------2-----x-0-------0-----x-0--------------------------------------|
A|----3-------3-----x---------------x-2--------------------------------------|
E|------------------x---------------x-3--------------------------------------|



Song Order:

Riff (Both Guitars)        x2
Verse (Guitar 1)           x2
Pre-Chorus                 x1
Chorus                     x2
Post Chorus (Both Guitars) x1
Riff (Both Guitars)        x1
Verse (Guitar 1)           x1
Verse (Both Guitars)       x1
Pre-Chorus                 x1
Chorus                     x2
Post Chorus (Both Guitars) x1
Bridge                     x1
Riff (Both Guitars)        x2
Pre-Chorus                 x1
Chorus                     x2 (Hold last D chord)
Acoustic Outro             x1
Tap to rate this tab
# A B C D E F G H I J K L M N O P Q R S T U V W X Y Z