Song name
# A B C D E F G H I J K L M N O P Q R S T U V W X Y Z

Bowling For Soup - Since We Broke Up tab

Song: Since We Broke Up
Artist: Bowling For Soup
Album: Lunch. Drunk. Love.
Year: 2013

The new album is great.  Figured I'd start tabbing some of my favorites.


Intro:

e|----7---------------3---------------3---------------2-----------------------|
B|----8---------------5---------------3---------------3-----------------------|
G|----9---------------5---------------4---------------2-----------------------|
D|----9---------------5---------------5---------------0-----------------------|
A|----7---------------3---------------5---------------------------------------|
E|------------------------------------3---------------------------------------|


Distorted Intro:

e|---------------------------------------------------------------------------|
B|---------------------------------------------------------------------------|
G|------------------------------------5---5---------x-7---7------------------|
D|----5---5---------x-2---2-----------5---5---------x-7---7------------------|
A|----5---5---------x-2---2-----------3---3---------x-5---5------------------|
E|----3---3---------x-0---0--------------------------------------------------|

e|---------------------------------------------------------------------------|
B|---------------------------------------------------------------------------|
G|------------------------------------5---5---------x-7----------------------|
D|----5---5---------x-2---2-----------5---5---------x-7----------------------|
A|----5---5---------x-2---2-----------3---3---------x-5----------------------|
E|----3---3---------x-0---0--------------------------------------------------|


Muted Verse:

e|---------------------------------------------------------------------------|
B|---------------------------------------------------------------------------|
G|------------------------------------5---5---------x-7---7------------------|
D|----5---5---------x-2---2-----------5---5---------x-7---7------------------|
A|----5---5---------x-2---2-----------3---3---------x-5---5------------------|
E|----3---3---------x-0---0--------------------------------------------------|
Mute: *   *           *   *           *   *           *   *


Muted Verse 2:

e|---------------------------------------------------------------------------|
B|---------------------------------------------------------------------------|
G|------------------------------------5---5---5---5---7---7---7---7----------|
D|----5---5---5---5---2---2---2---2---5---5---5---5---7---7---7---7----------|
A|----5---5---5---5---2---2---2---2---3---3---3---3---5---5---5---5----------|
E|----3---3---3---3---0---0---0---0------------------------------------------|
Mute: *   *   *   *   *   *   *   *   *   *   *   *   *   *   *   *


Unmuted Verse (Guitar 1):

e|---------------------------------------------------------------------------|
B|---------------------------------------------------------------------------|
G|------------------------------------5---5---------x-7---7------------------|
D|----5---5---------x-2---2-----------5---5---------x-7---7------------------|
A|----5---5---------x-2---2-----------3---3---------x-5---5------------------|
E|----3---3---------x-0---0--------------------------------------------------|


Unmuted Verse (Guitar 2):

e|------------3---------------3---------------0---------------2--------------|
B|--------3-------3-------3-------3-------1-------1-------3-------3----------|
G|---------------------------------------------------------------------------|
D|----------------------------------------------------0----------------------|
A|------------------------------------3--------------------------------------|
E|----3---------------0------------------------------------------------------|


Unmuted Verse 2 (Guitar 1):

e|---------------------------------------------------------------------------|
B|---------------------------------------------------------------------------|
G|------------------------------------5---5---5---5---7---7---7---7----------|
D|----5---5---5---5---2---2---2---2---5---5---5---5---7---7---7---7----------|
A|----5---5---5---5---2---2---2---2---3---3---3---3---5---5---5---5----------|
E|----3---3---3---3---0---0---0---0------------------------------------------|


Unmuted Verse 2 (Guitar 2):

e|------------3---------------3---------------0---------------2--------------|
B|--------3-------3-------3-------3-------1-------1-------3-------3----------|
G|---------------------------------------------------------------------------|
D|----------------------------------------------------0----------------------|
A|------------------------------------3--------------------------------------|
E|----3---------------0------------------------------------------------------|


Verse To Chorus (Guitar 1):

e|---------------------------------------------------------------------------|
B|---------------------------------------------------------------------------|
G|------------------------------------5---5---------x-7---7---4---4----------|
D|----5---5---------x-2---2-----------5---5---------x-7---7---4---4----------|
A|----5---5---------x-2---2-----------3---3---------x-5---5---2---2----------|
E|----3---3---------x-0---0--------------------------------------------------|


Chorus:

e|---------------------------------------------------------------------------|
B|---------------------------------------------------------------------------|
G|----5---5---5---5-----------------------------------9---9---7---7----------|     x3
D|----5---5---5---5---5---5---5---5---9---9---9---9---9---9---7---7----------|
A|----3---3---3---3---5---5---5---5---9---9---9---9---7---7---5---5----------|
E|--------------------3---3---3---3---7---7---7---7--------------------------|

e|---------------------------------------------------------------------------|
B|---------------------------------------------------------------------------|
G|----5---5---5---5---5---5---5---5---7---7---7---7---7--(7)-(7)-(7)---------|
D|----5---5---5---5---5---5---5---5---7---7---7---7---7--(7)-(7)-(7)---------|     
A|----3---3---3---3---3---3---3---3---5---5---5---5---5--(5)-(5)-(5)---------|
E|---------------------------------------------------------------------------|
(Notes in "()" are not played in the first chorus)


Bridge 1:

e|----7---7---7---7---7---7---7---7---3---3---3---3---3---3---3---3----------|
B|----8---8---8---8---8---8---8---8---5---5---5---5---5---5---5---5----------|
G|----9---9---9---9---9---9---9---9---5---5---5---5---5---5---5---5----------|
D|----9---9---9---9---9---9---9---9---5---5---5---5---5---5---5---5----------|
A|----7---7---7---7---7---7---7---7---3---3---3---3---3---3---3---3----------|
E|---------------------------------------------------------------------------|

e|----3---3---3---3---3---3---3---3---2---2---2---2---2---2---2---2----------|
B|----3---3---3---3---3---3---3---3---3---3---3---3---3---3---3---3----------|
G|----4---4---4---4---4---4---4---4---2---2---2---2---2---2---2---2----------|
D|----5---5---5---5---5---5---5---5---0---0---0---0---0---0---0---0----------|
A|----5---5---5---5---5---5---5---5------------------------------------------|
E|----3---3---3---3---3---3---3---3------------------------------------------|


Bridge 2 (Guitar 1):

e|---------------------------------------------------------------------------|
B|---------------------------------------------------------------------------|
G|------------------------------------5---5---5---5---5---5---5---5----------|
D|----2---2---2---2---2---2---2---2---5---5---5---5---5---5---5---5----------|
A|----2---2---2---2---2---2---2---2---3---3---3---3---3---3---3---3----------|
E|----0---0---0---0---0---0---0---0------------------------------------------|
Mute: *   *   *   *   *   *   *   *   *   *   *   *   *   *   *   *

e|---------------------------------------------------------------------------|
B|---------------------------------------------------------------------------|
G|------------------------------------7---7---7---7---7---7---7---7----------|
D|----5---5---5---5---5---5---5---5---7---7---7---7---7---7---7---7----------|
A|----5---5---5---5---5---5---5---5---5---5---5---5---5---5---5---5----------|
E|----3---3---3---3---3---3---3---3------------------------------------------|
Mute: *   *   *   *   *   *   *   *   *   *   *   


Bridge 2 (Guitar 2):

e|------------7---------------7---------------8---------------8--------------|
B|--------5-------5-------5-------5-------5-------5-------5-------5----------|
G|---------------------------------------------------------------------------|
D|---------------------------------------------------------------------------|
A|---------------------------------------------------------------------------|
E|---------------------------------------------------------------------------|

e|------------7---------------7----------------------------------------------|
B|--------3-------3-------3-------3------------------------------------------|
G|---------------------------------------------------------------------------|
D|---------------------------------------------------------------------------|
A|---------------------------------------------------------------------------|
E|---------------------------------------------------------------------------|


Solo (Guitar 1):

e|---------------------------------------------------------------------------|
B|---------------------------------------------------------------------------|
G|------------------------------------5---5---------x-7---7------------------|
D|----5---5---------x-2---2-----------5---5---------x-7---7------------------|
A|----5---5---------x-2---2-----------3---3---------x-5---5------------------|
E|----3---3---------x-0---0--------------------------------------------------|

e|---------------------------------------------------------------------------|
B|---------------------------------------------------------------------------|
G|------------------------------------5---5---------x-7---7---4---4----------|
D|----5---5---------x-2---2-----------5---5---------x-7---7---4---4----------|
A|----5---5---------x-2---2-----------3---3---------x-5---5---2---2----------|
E|----3---3---------x-0---0--------------------------------------------------|


Solo (Guitar 2):  (The Part on the e and G strings are played on separate guitars 
I believe, but it saves space to put them on one tab)

e|-----------5h7---7--7777753---------77777---10------7/5--------------------|
B|---------------------------------------------------------------------------|
G|-----------2h4---4--4444420---------44444---7-------4/2--------------------|
D|---------------------------------------------------------------------------|
A|---------------------------------------------------------------------------|
E|---------------------------------------------------------------------------|

e|-----------5h7---7--7777753---------CCCCC---14------10---------------------|
B|---------------------------------------------------------------------------|
G|-----------2h4---4--4444420---------99999---11-------7---------------------|     (C=12)
D|---------------------------------------------------------------------------|
A|---------------------------------------------------------------------------|
E|---------------------------------------------------------------------------|


Post Final Chorus:

e|---------------------------------------------------------------------------|
B|---------------------------------------------------------------------------|
G|----7---7---7---7---7---7---7---7---7---7---7---7---7----------------------|
D|----7---7---7---7---7---7---7---7---7---7---7---7---7----------------------|
A|----5---5---5---5---5---5---5---5---5---5---5---5---5----------------------|
E|---------------------------------------------------------------------------|


Final Chord:

e|---------------------------------------------------------------------------|
B|---------------------------------------------------------------------------|
G|---------------------------------------------------------------------------|
D|----5---5------------------------------------------------------------------|
A|----5---5------------------------------------------------------------------|
E|----3---3------------------------------------------------------------------|



Song Order:

Intro                             x1
Distorted Intro                   x1
Muted Verse                       x2
Muted Verse 2                     x2
Unmuted Verse (Both Guitars)      x2
Unmuted Verse 2 (Both Guitars)    x1
Verse to Chorus (Guitar 1)      \
                                  x1
with Unmuted Verse (Guitar 2)   / 
Chorus                            x1  (No "()" notes)
Muted Verse                       x2
Unmuted Verse 2 (Both Guitars)    x2
Chorus                            x1  (With "()" notes)
Bridge 1                          x1
Bridge 2 (Both Guitars)           x1
Solo (Both Guitars)               x1
Chorus                            x1  (With "()" notes)
Post Final Chorus                 x1
Unmuted Verse (Both Guitars)      x4
Final Chord                       x1
Tap to rate this tab
# A B C D E F G H I J K L M N O P Q R S T U V W X Y Z